Zao - To Think Of You Is To Treasure An Absent Memory Chords & Tabs

 

To Think Of You Is To Treasure An Absent Memory Chords & Tabs

Zao Chords & Tabs

Version: 1 Type: Bass Tab 0 ratings
1 star 2 stars 3 stars 4 stars 5 stars
comments

To Think Of You Is To Treasure An Absent Memory Bass Tab

   
Standard Tuning

Intro: (2x)
G|----|
D|----|
A|-5--|
E|----|

(12x)
G|------------------|
D|------------------|
A|-5-55-5--55-55-5--|
E|------------------|

(4x)
G|-----------|
D|-----------|
A|-5-5-5-5-5-|
E|-----------|

Verse: (4x)
G|------------------|
D|------------------|
A|--7~--------------|
E|-------5~-----0~--|

(8x)
G|---------------------------------|
D|---------------------------------|
A|---------------------------------|
E|-0-0-0-0-0-0-0-0-0-0-0-0-0-0-0-0-|

G|-----------------|
D|-----------------|
A|-----------------|
E|--0~------0~-----|
[ Tab from: http://www.guitartabs.cc/tabs/z/zao/to_think_of_you_is_to_treasure_an_absent_memory_btab.html ]
G|---------------------|         \
D|---------------------|          \
A|---------------------|           \
E|-0-0-0-0-0-0--0-0-0--|            \
                                    / 6x
G|-------------------------|       /
D|-------------------------|      /
A|-------------------------|     /
E|-0-0-0-0-0-0--0-3-0-3-0--|

(4x)
G|-----------|
D|-----------|
A|--5--3--8--|
E|-----------|

(4x) 
G|-----------------------------------------------------------------|
D|-----------------------------------------------------------------|
A|77777777-88888888-12-12-12-12-12-12-12-12-10-10-10-10-10-10-10-10|
E|-----------------------------------------------------------------|

G|-------|
D|-------|
A|-------|
E|--0-0--|

G|-----------------------------|
D|*---------------------------*|
A|*---------------------------*|
E|--0-0-0-0--0-0-0-0--00-0-0---|
Comments