Zao - Savannah Chords & Tabs

 

Savannah Chords & Tabs

Zao Chords & Tabs

Version: 1 Type: Tab 0 ratings
1 star 2 stars 3 stars 4 stars 5 stars
comments

Savannah Tab

   
Song: Savannah
Artist: Zao
Album: Liberate Te Ex Inferis
Transcribed by: BJ Woodward (sk8ing_woody@hotmail.com)

Dropped C Tuning

Intro: Segue from intro
Guitar 1 & 2:
E--------------|
B--------------|
G--------------|
D--------------|
A-5b--5b--5b-5-|
E-0---0---0--0-|

Intro 2: Guitar 1 stays the same. Parenthesis means palm mute
E-------------------------|
B-------------------------|
G--------7--------7-----7-|
D-(0-0-)---(0-0-)---(0)---|
A-(0-0-)-5-(0-0-)-5-(0)-5-|
E-(0-0-)---(0-0-)---(0)---|

Riff 1: Guitars 1 & 2 / = slide
E-------(10/)------(10/)------(10/)------(10/)-|
B----------------------------------------------|
G---------7/---------7/---------7/---------7/--|
D-1-1-0-0----1-1-0-0----1-1-0-0----1-1-0-0-----|
A-1-1-0-0-5/-1-1-0-0-5/-1-1-0-0-5/-1-1-0-0-5/--|
E-1-1-0-0----1-1-0-0----1-1-0-0----1-1-0-0-----|

Riff 2:
Guitar 1:
E------------------------------------------------|
B-4--4--4--4--4--4--4--4--4--4--4--4--4--4--4--4-|
G-7--7--7--7--7--7--7--7--7--7--7--7--7--7--7--7-|
D------------------------------------------------|
A------------------------------------------------|
E------------------------------------------------|

Guitar 2:
E----------------|
B----------------|
G-------------7~-|
D-(0-0--0-0-)----|
A-(0-0--0-0-)-5~-|
E-(0-0--0-0-)----|

Riff 3:
Guitar 1 & 2: First 4x
E-----------------|
B--------------4/-|
G--------------7/-|
D-7--0--8--0------|
A-7--0--8--0------|
E-7--0--8--0------|

Guitar 2: Second 4x
E----------------------------|
B----------------------------|
G----------------------------|
D-7--0--8--(0-0-0-0--0-0-0-0-)|
A-7--0--8--(0-0-0-0--0-0-0-0-)|
E-7--0--8--(0-0-0-0--0-0-0-0-)|
[ Tab from: http://www.guitartabs.cc/tabs/z/zao/savannah_tab.html ]
Pre-Chorus:
Guitar 1 & 2:
E--------------------|
B--------------------|
G--------------------|
D-(0-0-0-0--0-0-0-0-)|
A-(0-0-0-0--0-0-0-0-)|
E-(0-0-0-0--0-0-0-0-)|

Then:
Guitar 1:
E------------|
B-4--4--4--4-|
G-7--7--7--7-|
D------------|
A------------|
E------------|

Guitar 2:
E------------------|
B------------------|
G------------------|
D-0----0----0----0-|
A-0----0----0----0-|
E-0----0----0----0-|

Riff 3:
Guitar 1:
E---------------------|
B---------------------|
G-10-7-8-7--7-7-7-8-7-|
D---------------------|
A---------------------|
E---------------------|

Chorus:
Guitar 1: 2x
E-11-11-11-11-11-11-11-11-11-11-11-11-11-11-11-11-|
B-15-15-15-15-15-15-15-15-15-15-15-15-15-15-15-15-|
G-------------------------------------------------|
D-------------------------------------------------|
A-------------------------------------------------|
E-------------------------------------------------|

Guitar 2: 4x
E------------------------------------------|
B------------------------------------------|
G------------------------------------------|
D-(0-0--0-0--0-0--0-0--0-0--0-0--0-0--0-0-)|
A-(0-0--0-0--0-0--0-0--0-0--0-0--0-0--0-0-)|
E-(0-0--0-0--0-0--0-0--0-0--0-0--0-0--0-0-)|

Let feedback ring and mess around before the lead bass run.

Transition: Bass
G----------------------|
D----------------------|
A------------------(5)-|
E-7-6-7-0--7-6-7-0-----|

Guitars 1 & 2:
E---------------------|
B---------------------|
G-------------------7-|
D-7-6-7-0--7-6-7-0----|
A-7-6-7-0--7-6-7-0--5-|
E-7-6-7-0--7-6-7-0----|

End:
Guitar 1:
E------------------|
B-3-3-3-3--4-4-4-4-|
G-7-7-7-7--7-7-7-7-|
D------------------|
A------------------|
E------------------|

Guitar 2:
E------------------|
B------------------|
G------------------|
D-0-0-0-0--0-0-0-0-|
A-0-0-0-0--0-0-0-0-|
E-0-0-0-0--0-0-0-0-|

Comments