Zao - Ravage Ritual Chords & Tabs

 

Ravage Ritual Chords & Tabs

Zao Chords & Tabs

Version: 1 Type: Bass Tab 0 ratings
1 star 2 stars 3 stars 4 stars 5 stars
comments

Ravage Ritual Bass Tab

Drop D tuning

Riff 1 
G |---------------|
D |---------------|
A |---------------|
D |--0000-0~--1~--|

Riff 2 
G |---------------------------------|
D |---------------------------------|
A |---------------------------------|
D |--0~-000-000-000-1~-111-111-111--|

Fill 
G |-------|
D |-------|
A |-------|
D |--x-0--|

Riff 3
G |------------------|
D |------------------|
A |------------------|
D |--00-000-000-000--|
[ Tab from: http://www.guitartabs.cc/tabs/z/zao/ravage_ritual_btab.html ]
G |-------------------|
D |--7-5---5---5------|
A |------8---8---8-7--|
D |-------------------|

Riff 4 
G |---------------------|
D |------7-5---5---5----|
A |----------8---8---8--|
D |--0-0----------------|

Riff 5 
G |-----------------------------|
D |-----------------------------|
A |-----------------------------|
D |--x-x-7~-x-x-8~-7-5-3-0-3-0--|

Riff 6 
G |--------------|
D |--------------|
A |--------------|
D |--0~-6~-x-1~--|

Riff 7 
G |--------------|--------------------|
D |--------------|--------------------|
A |--------------|--------------------|
D |--0-00-0-000--|--0-000-00-00-0000--|
Comments