Zao - In Loving Kindness Chords & Tabs

 

In Loving Kindness Chords & Tabs

Zao Chords & Tabs

Version: 1 Type: Bass Tab 0 ratings
1 star 2 stars 3 stars 4 stars 5 stars
comments

In Loving Kindness Bass Tab

Drop D tuning

Intro: (4x)
G|---------------------------------|
D|---------------------------------|
A|--------------------2-3-2--------|
E|-0~--2-0--2-3---0~--------3-2-1--|

(00:30)
G|-----------------|
D|-----------------| (3x)
A|---------1-------|
E|-0--0-3-----3-2--|

(00:40) 
G|------------------------|
D|------------------------|
A|------------------------|
E|-00000000-22222222-0----|

(00:45)
G|---------------------------------------|------|--------------|
D|---------------------------------------|-(3x)-|--------------| (2x)
A|--------------------------2-0-2-3-2-0--|------|-2-0-2-3-2-0--|
E|-000000000000000000000000--------------|------|--------------|
[ Tab from: http://www.guitartabs.cc/tabs/z/zao/in_loving_kindness_btab.html ]
(01:05)
G|---------------------------------------------------------------------|
D|---------------------------------------------------------------------|
A|---------------------------------------------------------------------|
E|-0--0--0--0--0--0--0--0000-00-00-00-00-00-00-00-00-00-00-00-00-00-00-|

(01:32)
G|------------------------------|
D|------------------------------| (8x)
A|----------------------2-3-2-0-|
E|-00-00-00-00-00-00-00---------|

(02:10)
G|-----------|
D|-----------| (8x)
A|-----------|
E|-0-0-0--0--|

(02:26)
G|--------|
D|--------| (2x)
A|--------|
E|-0-0-0--|

(02:33)
G|------------------------------------------|
D|------------------------------------------| (until end)
A|-33333333-22222222--66666666-222-333-222--|
E|------------------------------------------|
Comments