Zao - If These Scars Could Speak Chords & Tabs

 

If These Scars Could Speak Chords & Tabs

Zao Chords & Tabs

Version: 1 Type: Bass Tab 0 ratings
1 star 2 stars 3 stars 4 stars 5 stars
comments

If These Scars Could Speak Bass Tab

Drop D tuning

Riff 1
G |--------------------------------------------------------|
D |-----------------------------------------------44-4444--|
A |--2-22-2-22-22-2-2-22-2-22-22-0-2-22-2-22-22-2----------|
D |--------------------------------------------------------|

Riff 2 
G |---------------------------------------|
D |---------------------------------------|
A |---------------------------------------|
D |--2-0-2-0~-2-0-2-0~-2-0-2-0~-2-0-2-0~--|

Fill 1 
G |------------------------|
D |------------------------|
A |------------------------|
D |--0000-0000-0000-0000~--|

Riff 3 
G |-----------------------------------------------------|
D |-----------------------------------------------------|
A |--2222222222\0/2222222222\0/2222222222\0/22222222/9--|
D |-----------------------------------------------------|

Riff 2 
[ Tab from: http://www.guitartabs.cc/tabs/z/zao/if_these_scars_could_speak_btab.html ]
Fill 2 
G |-------------|
D |-------------|
A |-------------|
D |--0000-0000--|

Riff 2 (1:21)

Riff 4 (1:31)
G |--------------------|
D |--------------------|
A |-----------7-5-7-5--|
D |--2-3-2-0~----------|

Riff 5 
G |------------------------|
D |------------------------|
A |------------------------|
D |--00-000-0-00-00000000--|

Riff 6 
G |--<12>------------|
D |-------<12>-------|
A |------------<12>--|
D |------------------|

Riff 7 
G |----------------------------------------------------------------|
D |----------------------------------------------------------------|
A |-----------------3---------------------3---------------------3--|
D |--7~-5~-0-00-000---0-00-000-0-0-00-000---0-00-000-0-0-00-000----|

Fill 3 
G |--------------------|
D |--------------------|
A |--------------------|
D |--0000--0000--0000--|

Riff 8 
G |---------------|
D |---------------|
A |---------------|
D |--5~--0000000--|
Comments