Zao - Ghost Psalm Chords & Tabs

 

Ghost Psalm Chords & Tabs

Zao Chords & Tabs

Version: 1 Type: Bass Tab 0 ratings
1 star 2 stars 3 stars 4 stars 5 stars
comments

Ghost Psalm Bass Tab

   
Tuning-C,G,C,F

Verse
F---------------------------------------------------------------|
C---------------------------------------------------------------|
G-11---------11-11--------------11---------11-11-11-------------|
C----0-0-0-0--------0-0-0-0-0-0----0-0-0-0----------0-0-0-0-0-0-|

Bridge
F-------------------------------------|
C-------------------------------------|
G-------------------------------------|
C-0-0-0-0-0-0-0-0-0-0-0-0-0-0-0-0-----|

F-----------------------------------------------------------------|
C-----------------------------------------------------------------|
G-5--6-8-6--5-6-------------------5--6-8--6-10--------------------|
C--------------0-0-0-0-0-0-0-0-0--------------0-0-0-0-0-0-0-0-0-0-|

F------
Có-----
G-11---|
C------|
[ Tab from: http://www.guitartabs.cc/tabs/z/zao/ghost_psalm_btab.html ]
F---------------------------------------------------------------|
C---------------------------------------------------------------|
G-11---------11-11--------------11---------11-11-11-------------|
C----0-0-0-0--------0-0-0-0-0-0----0-0-0-0----------0-0-0-0-0-0-|

Bridge:
F-------------------------------------|
C-------------------------------------|
G-------------------------------------|
C-7-7-7-7-7-7-7-7\-0-1-0-2-0----------|

(Tremolo picking all these riffs)
F-------------------------------------|
C-------------------------------------|
G-5-5-5-5-5-5--6--8-------------------|
C--------------------0-1-0-2-0--------|

F--------------------------------------|
C--------------------------------------|
G-5-5-5-5-5-5--8--6-8------------------|
C-----------------------0-1-0-2-0------|

F--------------------------------------|
C--------------------------------------|
G-5-5-5-5-5-5-6-8--6-------------------|
C------------------------0-1-0-2-0-----|

Outro:
F-----------------|
C-----------------|
G-----------------|
C-0--0--0--0------|
Comments