Zao - Fall Farewell Chords & Tabs

 

Fall Farewell Chords & Tabs

Zao Chords & Tabs

Version: 2 Type: Bass Tab 0 ratings
1 star 2 stars 3 stars 4 stars 5 stars
comments

Fall Farewell Bass Tab

   
tuning-c,g,c,f

|----------------------------------------------------|
|----------------------------------------------------| (4x)
|--------------6-6-6-5-3-5--------------6-6-5-8-8-8--|
|-0--0-0-0--0---------------0-0-0-0--0---------------|

|-------------------------------------|
|-------------------------------------|
|-6-6-6-5--6-6-6-5--6-6-6-5--6-6-6-5--|
|-------------------------------------|

|---------------------------------------------------|
|---------------------------------------------------| (4x)
|--------5^---------5^---------5^--3-3-3-3-3-3-3-3--|
|-0-0-0------0-0-0------0-0-0-----------------------|
[ Tab from: http://www.guitartabs.cc/tabs/z/zao/fall_farewell_btab_ver_2.html ]
|----------------------------------------------------------------|
|----------------------------------------------------------------|
|----------------------------------------------------------------|
|-0-1-2-0------0-1-2-0-------0-1-2-0------0-1-2-0-------0-1-2-0--|

|-----------------------|------|----|
|-----------------------|-(8x)-|----|
|-----------------------|------|----|
|-0-0-0-5^-0-0-0--5-6^--|------|-0~-|

|--------------------------------------------------|
|--------------------------------------------------| (4x)
|-------------6-6-6-5-3-5-------------6-6-5-8-8-8--|
|-0--0-0-0--0--------------0-0-0-0--0--------------|

|-----------------------------------------|
|-----------------------------------------|
|-2-3--2-3--2-3--2-3--2-3--2-3--2-3--2-3--|
|-----------------------------------------|

|-------|
|-------|
|-------|
|-0--0~-|
Comments