Zao - Dark Cold Sound Chords & Tabs

 

Dark Cold Sound Chords & Tabs

Zao Chords & Tabs

Version: 2 Type: Tab 0 ratings
1 star 2 stars 3 stars 4 stars 5 stars
comments

Dark Cold Sound Tab

Song: Dark Cold Sound
Artist: Zao
Album: Liberate Te Ex Inferis
Transcribed by: BJ Woodward (sk8ing_woody@hotmail.com)
 
Dropped C Tuning
 
Intro:
Guitar 1 & 2:
E-----------------------------------------------------------|
B-----------------------------------------------------------|
G-6--6--6-6--5--5--5--5-------------10-10-10-10-10-10-10-10-|
D------------------------5--5--9--9-------------------------|
A-4--4--4-4--3--3--3--3--5--5--9--9--8--8--8--8--8--8--8--8-|
E------------------------5--5--9--9-------------------------|
 
Guitar 3: 3rd and 4th time
E---------------------------------------------------------------------|
B---------------------------------------------------------------------|
G-11-11-11-9-11--12--12--12--12--14--14-12-14-10-10-10-10-10-10-10-10-|
D---------------------------------------------------------------------|
A--9--9--9-7--9--10--10--10--10--12--12-10-12--8--8--8--8--8--8--8--8-|
E---------------------------------------------------------------------|
 
Verse:
Guitar 1 first, then both 1 & 2
E-------------------|
B-------------------|
G-------------------|
D-1-0--1-0--1-1-1-0-|
A-1-0--1-0--1-1-1-0-|
E-1-0--1-0--1-1-1-0-|
 
Guitar 3:
E----------------------------------|
B----------------------------------|
G------12--11----------------------|
D-0-0---------7-7--7-5-5--5-3-3--3-|
A-0-0-10---9--7-7--7-5-5--5-3-3--3-|
E-0-0---------7-7--7-5-5--5-3-3--3-|
 
Bridge A Part:
Guitar 1:
E---------------------|
B---------------(10--8--6-)|
G-(10--9--7-)--------------|
D----------------7---5--3--|
A---8--7--5----------------|
E--------------------------|
 
Guitar 2:
E----------------------|
B------------10--8--6--|
G-10--9--7-------------|
D------------(7--5--3-)|
A-(8--7--5)------------|
E----------------------|
 
B Part: After that is played once then both Guitars play
E-----------------------|
B-----------------------|
G-----------------------|
D-0-x-x-x-x--0--x-x-x-x-|
A-0-x-x-x-x--0--x-x-x-x-|
E-0-x-x-x-x--0--x-x-x-x-|
And they go back and forth between the two riffs.
 
That is played 4x then this: ("Over and over…")
Guitars 1-3:
E------------------------------|
B------------------------------|
G------------------------------|
D-(3-2-0--3-2-0--3-2-0--3-2-0-)|
A-(3-2-0--3-2-0--3-2-0--3-2-0-)|
E-(3-2-0--3-2-0--3-2-0--3-2-0-)|
 
(Verse)
(Bridge A Part)
(Intro)

[ Tab from: http://www.guitartabs.cc/tabs/z/zao/dark_cold_sound_tab_ver_2.html ]
Comments