Zao - 5 Year Winter Chords & Tabs

 

5 Year Winter Chords & Tabs

Zao Chords & Tabs

Version: 1 Type: Bass Tab 0 ratings
1 star 2 stars 3 stars 4 stars 5 stars
comments

5 Year Winter Bass Tab

Drop C tuning

Verse: (8x)
|-------------------|
|-------------------|
|-------------------|
|-3-1-0-3-0-0-------|

Bridge: (5x)
|-------------------|
|-------------------|
|-------------------|
|-0-0-0-0--0-0-0-0--|

|-------------------|
|-------------------|
|-------------------|
|-0-0-0--3-1-0-3----|
[ Tab from: http://www.guitartabs.cc/tabs/z/zao/5_year_winter_btab.html ]
Verse: (8x) 
|-------------------|
|-------------------|
|-------------------|
|-3-1-0-3-0-0-------|

Bridge: (5x) 
|-------------------|
|-------------------|
|-------------------|
|-0-0-0-0--0-0-0-0--|

|-------------------|
|-------------------|
|-------------------|
|--0-0-0--3-1-0-3---|

Breakdown:
|--------------------------------|
|*------------------------------*|
|*------------------------------*|
|---0-0-0-0-0-0-0-0-0-0-0-0-0----|

Outro
|------|
|------|
|------|
|-0-0--|
Comments