Zanguinary - Heroes Bequest Chords & Tabs

 

Heroes Bequest Chords & Tabs

Zanguinary Chords & Tabs

Version: 1 Type: Tab 0 ratings
1 star 2 stars 3 stars 4 stars 5 stars
comments

Heroes Bequest Tab

Song Name:Heroes Bequest

Band:Zanguinary

Made by:Robin Lindström

 Intro
e----------------------------------------------------------------------------------
b--------0-1--------------1-0-1----------------------------------------------------
g------2-----2----------0-------0-------------0-------1----------------------------
d----2---------2------2-----------2---------0-------2------------------------------
a--0-------------0--3---------------3-----0-------2--------------------------------
e---------------------------------------3-------0---------------------------------- Repeat 6 Times

e----------------------------------------------------------------------------------
b----------------------------------------------------------------------------------
g----------------------------------------------------------------------------------
d-------7-------------7-------------7--------------7--5----------------------------
a-------7--5-7-8------7--5-7-8------7--5-7-8-------7----8-7------------------------
e---0-0-5---------0-0-5---------0-0-5----------0-0-5-------------------------------


e----------------------------------------------------------------------------------
b----------------------------------------------------------------------------------
g----------------------------------------------------------------------------------
d-------5-------------5-------------5-------------5--3-----------------------------
a-------5--3-5-6------5--3-5-6------5--3-5-6------5----5-6-------------------------
e---0-0-3---------0-0-3---------0-0-3---------0-0-3-------------------------------- Repeat 2 Times


e----------------------------------------------------------------------------------
b----------------------------------------------------------------------------------
g----------------------------------------------------------------------------------
d---7---------5--------------------------------------------------------------------
a---7---------5--------------------------------------------------------------------
e---5-5-7-8---3-3-5-3-------------------------------------------------------------- Repeat 4 Times

[ Tab from: http://www.guitartabs.cc/tabs/z/zanguinary/heroes_bequest_tab.html ]
e----------------------------------------------------------------------------------
b----------------------------------------------------------------------------------
g----------------------------------------------------------------------------------
d-------7-------------7-------------7--------------7--5----------------------------
a-------7--5-7-8------7--5-7-8------7--5-7-8-------7----8-7------------------------
e---0-0-5---------0-0-5---------0-0-5----------0-0-5-------------------------------


e----------------------------------------------------------------------------------
b----------------------------------------------------------------------------------
g----------------------------------------------------------------------------------
d-------5-------------5-------------5-------------5--3-----------------------------
a-------5--3-5-6------5--3-5-6------5--3-5-6------5----5-6-------------------------
e---0-0-3---------0-0-3---------0-0-3---------0-0-3-------------------------------- Repeat 2 Times

e----------------------------------------------------------------------------------
b----------------------------------------------------------------------------------
g----------------------------------------------------------------------------------
d---7---------5--------------------------------------------------------------------
a---7---------5--------------------------------------------------------------------
e---5-5-7-8---3-3-5-3-------------------------------------------------------------- Repeat 4 Times

e----------------------------------------------------------------------------------
b----------------------------------------------------------------------------------
g----------------------------------------------------------------------------------
d---7-7-7-7----5-5-5-5-------------------------------------------------------------
a---7-7-7-7----5-5-5-5-------------------------------------------------------------
e---5-5-5-5----3-3-3-3-------------------------------------------------------------


Outro
e----------------------------------------------------------------------------------
b--------0-1--------------1-0-1----------------------------------------------------
g------2-----2----------0-------0-------------0-------1----------------------------
d----2---------2------2-----------2---------0-------2------------------------------
a--0-------------0--3---------------3-----0-------2--------------------------------
e---------------------------------------3-------0---------------------------------- Repeat 4 Times


Comments