Zam - Melancholy Chords & Tabs

 

Melancholy Chords & Tabs

Zam Chords & Tabs

Version: 1 Type: Tab 0 ratings
1 star 2 stars 3 stars 4 stars 5 stars
comments

Melancholy Tab

                 
                                 ZAM
                              Melancholy
                           Standard Tuning



                                Intro


      Riff. 1    E|---------------------------------------|
     Repeat 4X   B|---------------------------------------|
                 G|---------------------------------------|
                 D|---------------------------------------|
                 A|---------------------------------------|
                 E|-0-0-0-0-00-8-8-7-7-77-----------------|

                      
                                Verse
                         

       Riff. 2   E|---------------------------------------|
                 B|---------------------------------------|
                 G|---------------------------------------|
                 D|-9-9-9-9-99-9-9-9-9-77-----------------|
                 A|-7-7-7-7-77-7-7-7-7-99-----------------|
                 E|-0-0-0-0-00-8-8-7-7-77-----------------|
[ Tab from: http://www.guitartabs.cc/tabs/z/zam/melancholy_tab.html ]
                  
       Riff. 3   E|---------------------------------------|
                 B|---------------------------------------|
                 G|---------------------------------------|
                 D|-9-9-9-9-99-9-9-9-9--------------------|
                 A|-7-7-7-7-77-7-7-7-7--------------------|
                 E|-0-0-0-0-00-8-8-8-8-7-3s5--------------|


       Riff. 2   E|---------------------------------------|
                 B|---------------------------------------|
                 G|---------------------------------------|
                 D|-9-9-9-9-99-9-9-9-9-77-----------------|
                 A|-7-7-7-7-77-7-7-7-7-99-----------------|
                 E|-0-0-0-0-00-8-8-7-7-77-----------------|

                 
       Riff. 4   E|---------------------------------------|
                 B|---------------------------------------|
                 G|---------------------------------------|
                 D|-9-9-9-9-99-9-9-9-9--------------------|
                 A|-7-7-7-7-77-7-7-7-7--------------------|
                 E|-0-0-0-0-00-8-8-8-8-7b-----------------|


                                Chorus



       Riff. 5   E|---------------------------------------|
      Repeat 2X  B|---------------------------------------|
                 G|------------0--------0-----------------|
                 D|-9-9-9-9---9----------9----------------|
                 A|-7-7-7-7--7------------7---------------|
                 E|-0-0-0-0-0---8-8-8-8----8--------------|


                 



Comments