Zaki Amir - Amir Zaki Chords & Tabs

 

Amir Zaki Chords & Tabs

Zaki Amir Chords & Tabs

Version: 1 Type: Tab 0 ratings
1 star 2 stars 3 stars 4 stars 5 stars
comments

Amir Zaki Tab

TABS BY SHAHRUKH OMAR
hi!
  amir zaki truly a great gutarist of pakistan his songs and compositions
one of the best in pakistan yet his tabs are very rare to be found 
   this is his truly cool salsa kind of song but the problem is that i have forgotten 
the name and i can't find the cd cover anyways play it and u will recognize it

[ Tab from: http://www.guitartabs.cc/tabs/z/zaki_amir/amir_zaki_tab.html ]
e|----3-7-5-3---------3|
B|3-5---------5-3-0-5--|
G|---------------------|
D|---------------------|
A|---------------------|
E|---------------------|

e|----3-7-5-3-5-3-7-5H7-5|
B|3-5--------------------|
G|-----------------------|
D|-----------------------|
A|-----------------------|
E|-----------------------|

 	this tab can be played on accoustic and electric as well
 the rest of the song is the repeatition with slight changes...

artist:amir zaki
tabs by shahrukh omar
Comments