Z Clan - The Retarded Ballad Of Caint Get Right Chords & Tabs

 

The Retarded Ballad Of Caint Get Right Chords & Tabs

Z Clan Chords & Tabs

Version: 1 Type: Tab 0 ratings
1 star 2 stars 3 stars 4 stars 5 stars
comments

The Retarded Ballad Of Caint Get Right Tab

   
The Retarded Ballad of Cain’t Get Right
Z-CLAN
/=slide 
heavy distortion

intro
A------------------------4-4-4-4-4-1-/-7-10-10-10-10-10-
B3-3-3-3-3------------4-4-4-4-4-1-/-7-10-10-10-10-10-
G------------------------6-6-6-6-6-1-/-7-10-10-10-10-10-
D4-4-4-4-4-6-6-6-6-6-------------1-/-7--7-7—7—7-7-
A2-2-2-2-2-4-4-4-4-4-------------1-/-7--7-7---7---7-7-
E2-2-2-2-2-4-4-4-4-4-------------1-/-7--7-7---7---7-7-

A--------------8-/-9----------12
B---------8-----------------9----
G---6-----------------------------
D------8---------------10--------                VERSE 1 x 2
A-----------6---------------------
E-7------------------9------------
[ Tab from: http://www.guitartabs.cc/tabs/z/z_clan/the_retarded_ballad_of_caint_get_right_tab.html ]
A-3-------------------------12---------12
B----------------------------------------x
G-----------5------------11----11-----11
D---4------------------------------------x               VERSE 2 x 2
A--------3---6-/-10-10------------10-10
E------4---------------------------------x

A------------------0------------------0-------------------0
B------------------0------------------0-------------------0
G------------------0------------------0-------------------0
D------------------0------------------0-------------------0            CHOURS x2
A------------------0------------------0-------------------0
E-x-x-x-x-x-x-x-0-x-x-x-x-x-x-x-0-x-x-x-x-x-x-x-0
Comments