Youth Of Today - Youth Of Today Chords & Tabs

 

Youth Of Today Chords & Tabs

Youth Of Today Chords & Tabs

Version: 1 Type: Tab 0 ratings
1 star 2 stars 3 stars 4 stars 5 stars
comments

Youth Of Today Tab

#----------------------------------PLEASE NOTE--------------------------------#
#This file is the author's own work and represents their interpretation of the#
#song. You may only use this file for private study, scholarship, or research.#
#-----------------------------------------------------------------------------#
#-- File created with Instab - http://www.pconline.com/~smcarey/instab.html --#
#-----------------------------------------------------------------------------#

Author/Artist: Youth of Today
Title: Youth of Today
Album: Youth of Today
Transcribed by: Erik Wendel aka Corse
Email: xpraven@hotmail.com

                                                                              


------------------------------------------------------------------------------
------------------------------------------------------------------------------
------------------------------------------------------------------------------
-------------2-5-2-5---------------5-4-4-3------------------------------------
-------------2-5-2-5---------------5-4-4-3------------------------------------
---0-0-0-0---0-3-0-3-----0-0-0-0---3-2-2-1------------------------------------
                                                                              
[ Tab from: http://www.guitartabs.cc/tabs/y/youth_of_today/youth_of_today_tab.html ]
------------------------------------------------------------------------------
------------------------------------------------------------------------------
------------------------------------------------------------------------------
---2-2-2-2-2-2-2-2-5-5-4-7-7-7-7-7--------------------------------------------
---2-2-2-2-2-2-2-2-5-5-4-7-7-7-7-7--------------------------------------------
---0-0-0-0-0-0-0-0-3-3-2-5-5-5-5-5--------------------------------------------                                                                              
          x8                x5

-------------------------------------|----------------------------------------
-------------------------------------|----------------------------------------
----4-4-4-4-4-4-4-4-4-4-4-4--9-7-----|----4-4-4-4-4-4-4-4-4-4-4-4--4-7--------
----4-4-4-4-4-4-4-4-4-4-4-4--9-7-----|----4-4-4-4-4-4-4-4-4-4-4-4--4-7--------
----2-2-2-2-2-2-2-2-2-2-2-2--7-5-----|----2-2-2-2-2-2-2-2-2-2-2-2--2-5--------
-------------------------------------|----------------------------------------
             x12                                     x12                                         


------------------------|-----------------------------------------------------
------------------------|-----------------------------------------------------
---2--------5--7--5-----|---2-------------------------------------------------
---2--------5--7--5-----|---2-----5-----4-----3-----2-------------------------
---0---0-0--3--5--3-----|---0-----5-----4-----3-----2-------------------------
------------------------|---------3-----2-----1-----0-------------------------
                           all power chords except the last one is played
                           lots of times, figure it out yourself
that should be it, 
i really dont know the song
i just got a request to tab it                                                                              

Comments