Youth Brigade - Fight To Unite Chords & Tabs

 

Fight To Unite Chords & Tabs

Youth Brigade Chords & Tabs

Version: 1 Type: Tab 0 ratings
1 star 2 stars 3 stars 4 stars 5 stars
comments

Fight To Unite Tab

-------------------------------------------------------------------------------
			     FIGHT TO UNITE - Youth Brigade
-------------------------------------------------------------------------------
Tabbed by:SocialD123
Email:
[ Tab from: http://www.guitartabs.cc/tabs/y/youth_brigade/fight_to_unite_tab.html ]
Tuning:
intro
e|---12 with feedback and tremelo-------------------------------------------|
B|--------------------------------------------------------------------------|
G|-------------------------------------------5-5---3-3---7-7----------------|
D|-------------------------------------7-7---5-5---3-3---7-7--x4------------|
A|-------------------------------------7-7---3-3---1-1---5-5----------------|
E|-------------------------------------5-5----------------------------------|
verse
e|---------------------------------------------------------------------------|
B|---------------------------------------------------------------------------|
G|--------------7--9---------------------------------------------------------|
D|-----7-7--7---7--9---x4----------------------------------------------------|
A|-----7-7--7---5--7---------------------------------------------------------|
E|-----5-5--5----------------------------------------------------------------|
pre chorus
e|--------------------------------------------------------------------------|
B|--------------------------------------------------------------------------|
G|----7-7--7---9-9--9---10-10--10---9-9--9----------------------------------|
D|----7-7--7---9-9--9---10-10--10---9-9--9----------------------------------|
A|----5-5--5---7-7--7---8--8---8----7-7--7----------------------------------|
E|--------------------------------------------------------------------------|
pre chorus
e|--------------------------------------------------------------------------|
B|--------------------------------------------------------------------------|
G|----7-7--7---9-9--9---10-10---12-12--12-----------------------------------|
D|----7-7--7---9-9--9---10-10---12-12--12-----------------------------------|
A|----5-5--5---7-7--7---8--8----10-10--10-----------------------------------|
E|--------------------------------------------------------------------------|
chorus
e|--------------------------------------------------------------------------|
B|--------------------------------------------------------------------------|
G|-------5---3---7----------------------------------------------------------|
D|---7---5---3---7---x4-----------------------------------------------------|
A|---7---3---1---5----------------------------------------------------------|
E|---5----------------------------------------------------------------------|
post chorus
e|--------------------------------------------------------------------------|
B|--------------------------------------------------------------------------|
G|--------------------3-3--3------------------------------------------------|
D|--3-3--3---5-5--5---3-3--3---4-4--4---------------------------------------|
A|--3-3--3---5-5--5---1-1--1---4-4--4---x2----------------------------------|
E|--1-1--1---3-3--3------------2-2--2---------------------------------------|
pre verse
e|--------------------------------------------------------------------------|
B|--------------------------------------------------------------------------|
G|--------------------------------------------------------------------------|
D|-----7-7-7-~--------------------------------------------------------------|
A------7-7-7-~---x2---------------------------------------------------------|
E|-----5-5-5-~--------------------------------------------------------------|
Comments