Youth Alive Nsw - Anthem Live Chords & Tabs

 

Anthem Live Chords & Tabs

Youth Alive Nsw Chords & Tabs

Version: 1 Type: Tab 0 ratings
1 star 2 stars 3 stars 4 stars 5 stars
comments

Anthem Live Tab

   
Anthem - Youth Alive NSW
Youth Alive NSW website: http://www.nsw.youthalive.org.au/main.html
Album: Elevate

Intro/Chorus synth notes:
D, E, F, E, F, E (x2)
D, G, F, E, F, E (x2)

Intro tab:
e---------------------------------------------|
b---------------------------------------------|
g---------------------------------------------|
d---7--7--7--9--9--9--10-10-10-9--9-10--9-----|
a---5--5--5--7--7--7--8--8--8--7--7--8--7-----|    x2
e---------------------------------------------|

e--------------------------------------------|
b--------------------------------------------|
g--------------------------------------------|
d---7--7--7--12--12--12--10-10-10-9--9-10--9-|
a---5--5--5--10--10--10--8--8--8--7--7--8--7-|
e--------------------------------------------|
[ Tab from: http://www.guitartabs.cc/tabs/y/youth_alive_nsw/anthem_live_tab.html ]
Verse 1:
D				     C
I can hear the song from heaven, falling over me
       Am				     G
The sound of a thousand voices, fills the air
D				           C
Can you hear the sound of freedom, falling in this place
    Am					   G
A thousand arms in the air, lift up your name

Chorus:
D
Everybody sing hallelujah
Lift your hands and sing hallelujah
Everybody praisin' Jesus
Lift your hands praisin' Jesus
Everybody sing hallelujah
Lift your hands and sing hallelujah
Everybody praisin' Jesus
Praise Him, Praise Him (x2)

Verse 2:
I can hear the song of healing, washing over me
A thousand leaves on the floor, seek your face
Can you feel the flood of mercy, at this throne of grace
All the earth shouts to you anthems of praise

Bridge:
D
Praise him, praise him
C
Praise him, praise him
Am
Praise him, praise him
G
Praise him, praise him (x6)

Any changes are more than welcome, email me at FrAzEr1803@hotmail.com
Comments