Youngbloods - Lets Get Together Chords & Tabs

 

Lets Get Together Chords & Tabs

Youngbloods Chords & Tabs

Version: 1 Type: Bass Tab 0 ratings
1 star 2 stars 3 stars 4 stars 5 stars
comments

Lets Get Together Bass Tab

The Youngbloods - Let's Get Together
[ Tab from: http://www.guitartabs.cc/tabs/y/youngbloods/lets_get_together_btab.html ]
  intro                                    verse
G|----------------------------------------|------------------------------------------------------|
D|--7--7-----55/7/7------7--7-----55757---|--7--------7--------7--------5----------5--------5----|
A|-7-------57-----------7-------57--------|-7---7----7---7----7---7----7--5\3-----5---5----5---5-|
E|5-----3----------55--5-----3---------55-|5-----5--5-----5--5-----5--5------33--3-----3--3-----5|



  chorus "Come on people now smile on your brother"
G|--------------------------------5---|
D|-----------------------75------5--7-|
A|-5-345---567---5--5--57--5--573-----|
E|5-5-----5-----7-75------------------|


Comments