Young Neil - Needle And The Damage Done Chords & Tabs

 

Needle And The Damage Done Chords & Tabs

Young Neil Chords & Tabs

Version: 2 Type: Tab 0 ratings
1 star 2 stars 3 stars 4 stars 5 stars
comments

Needle And The Damage Done Tab

#----------------------------------PLEASE NOTE--------------------------------#
#This file is the author's own work and represents their interpretation of the#
#song. You may only use this file for private study, scholarship, or research.#
#-----------------------------------------------------------------------------#
#-- File created with Instab - http://www.pconline.com/~smcarey/instab.html --#
#-----------------------------------------------------------------------------#

Author/Artist: Neil young
Title: Needle and the damage done
Album: Harvest
Transcribed by: Mick
Email: micko_thegza@hotmail.com

This is as close as i can get it

-|---2-----0-----------|----------0----------|---------3--------3-|-----------
-|------3-----3------3-|----3--------3-----3-|---3--------3-------|-----------
-|---------------------|-------2-------------|------0--------0----|-----------
-|-0-------------0-----|---------------------|--------------------|-----------
-|---------------------|-2--------------2----|--------------------|-----------
-|---------------------|---------------------|-3------------------|-----------
                                                                              
[ Tab from: http://www.guitartabs.cc/tabs/y/young_neil/needle_and_the_damage_done_tab_ver_2.html ]
---------3----------|---------------------------|---------------------------|-
---3--------3-----0-|-----1-----1-----1-------1-|-----1-----1-----1------0--|-
------3--------3----|--------------0-----0h2----|--3-----2-----0------------|-
-0------------------|--------2------------------|---------------------3-----|-
--------------------|--3------------------------|---------------------------|-
--------------------|---------------------------|---------------------------|-
                   ^(last time, stop here)                                    

--------------------------|------------------------|--------------------------
-----0-----0-----0-----0--|----0-----0-----0-----0-|--------------------------
--2-----------------------|-1----------------------|--------------------------
--------2-----------2-----|-------2----------------|--------------------------
--------------2-----------|-------------2-----0----|--------------------------
--------------------------|------------------------|--------------------------
                          (###)                       repeat!                 

--------------------------------------------------------------------|-|-------
-----0-----0-------0-----0------------------------------------------|-|-------
--------------------------------------------------------------------|-|-------
--------2-----2/4-----2---------------------------------------------|-|-------
--2-----------------------------------------------------------------|-|-------
--------------------------------------------------------------------|-|-------
 (###)this is the main turn around                                            

Comments