Young Neil - My My Hey Hey Easy Version Chords & Tabs

 

My My Hey Hey Easy Version Chords & Tabs

Young Neil Chords & Tabs

Version: 1 Type: Tab 0 ratings
1 star 2 stars 3 stars 4 stars 5 stars
comments

My My Hey Hey Easy Version Tab

   
                     MY MY, HEY HEY.  Neil Young.

This has been tabbed for the Beginner Guitar player in mind. 
Any gripes or praise PM Frankyz84. Enjoy.

INTRO
  Am                        G                        Fmaj7
|-------0----------------|--------3----------------|--------0-----0--0--0---|
|-------1----------------|--------0----------------|--------1-----1--1--1---|
|-------2----------------|--------0----------------|--------2-----2--2--2---|
|-------2--------------0~|~(0)----0----------------|--------3-----3--3--3---|
|-0-----0-----0--2--3----|--------2-----2--0-----0~|~(0)--------------------|
|------------------------|--------3-----------3----|------------------------|
  1  +  2  +  3  +  4  +    1  +  2  +  3  +  4  +    1  +  2  +  3  +  4  +
  Fmaj7                    Am                         G
|------------------------|-------0----------------|--------3----------------|
|-------1-----1--1--1----|-------1----------------|--------0----------------|
|-------2-----2--2--2----|-------2----------------|--------0----------------|
|-------3-----3--3--3----|-------2--------------0~|~(0)----0-----2--0-----0-|
|-0----------------------|-0-----0-----0--2--3----|--------2-----------3----|
|------------------------|------------------------|--------3----------------|
  1  +  2  +  3  +  4  +   1  +  2  +  3  +  4  +    1  +  2  +  3  +  4  +
  Fmaj7                     Fmaj7
|-------0-----0--0--0-----|-------0-----0--0--0----|
|-------1-----1--1--1-----|-------1-----1--1--1----|
|-------2-----2--2--2-----|-------2-----2--2--2----|
|-------3-----3--3--3-----|-------3-----3--3--3----|
|-0-----------------------|-0----------------------|
|-------------------------|------------------------|
  1  +  2  +  3  +  4  +    1  +  2  +  3  +  4  +   
VERSE
  Am                        G                        Fmaj7
|-------0----------------|--------3----------------|--------0-----0--0--0---|
|-------1----------------|--------0----------------|--------1-----1--1--1---|
|-------2----------------|--------0----------------|--------2-----2--2--2---|
|-------2--------------0~|~(0)----0----------------|--------3-----3--3--3---|
|-0-----0-----0--2--3----|--------2-----2--0-----0~|~(0)--------------------|
|------------------------|--------3-----------3----|------------------------|
  1  +  2  +  3  +  4  +    1  +  2  +  3  +  4  +    1  +  2  +  3  +  4  +
              My       my               hey      hey               
  Fmaj7                    Am                         G
|------------------------|-------0----------------|--------3----------------|
|-------1-----1--1--1----|-------1----------------|--------0----------------|
|-------2-----2--2--2----|-------2----------------|--------0----------------|
|-------3-----3--3--3----|-------2--------------0~|~(0)----0-----2--0-----0-|
|-0----------------------|-0-----0-----0--2--3----|--------2-----------3----|
|------------------------|------------------------|--------3----------------|
  1  +  2  +  3  +  4  +   1  +  2  +  3  +  4  +    1  +  2  +  3  +  4  +
                                       Rock `n` Roll       is here to stay
[ Tab from: http://www.guitartabs.cc/tabs/y/young_neil/my_my_hey_hey_easy_version_tab.html ]
  Fmaj7                     Fmaj7
|-------0-----0--0--0-----|-------0-----0--0--0----|
|-------1-----1--1--1-----|-------1-----1--1--1----|
|-------2-----2--2--2-----|-------2-----2--2--2----|
|-------3-----3--3--3-----|-------3-----3--3--3----|
|-0-----------------------|-0----------------------|
|-------------------------|------------------------|
  1  +  2  +  3  +  4  +    1  +  2  +  3  +  4  + 
                                              It`s





  C                        G                       Am
|-------------0-----0--0-|-------------3-----3--3-|-------------0-----0--0-|
|-------------1-----1--1-|-------------0-----0--0-|-------------1-----1--1-|
|-------------0-----0--0-|-------------0-----0--0-|-------------2-----2--2-|
|-------2-----2-----2--2-|-------0-----0-----0----|-------2-----2-----2----|
|-3-----------3-----3----|-------------2-----2----|-0-----------0-----0----|
|------------------------|-3-----------3-----2----|------------------------|
  1  +  2  +  3  +  4  +   1  +  2  +  3  +  4  +   1  +  2  +  3  +  4  + 
  Better     to     burn   out                      than        to    Fade

  Fmaj7                    Am                       G                      |-------------0-----0--0-|-------0---------------|--------3----------------|
|-------------1-----1--1-|-------1---------------|--------0----------------|
|-------------2-----2--2-|-------2---------------|--------0----------------|
|-------------3-----3--3-|-------2-------------0~|~(0)----0----------------|
|-------3----------------|-0-----0-----0--2--3---|--------2-----2--0-----0~|
|-1----------------------|-----------------------|--------3-----------3----|
  1  +  2  +  3  +  4  +   1  +  2  +  3  +  4  +   1  +  2  +  3  +  4  +  
 away                            my          my           hey         hey

  Fmaj7                     Fmaj7
|-------0-----0--0--0-----|-------0-----0--0--0----|
|-------1-----1--1--1-----|-------1-----1--1--1----|
|-------2-----2--2--2-----|-------2-----2--2--2----|   Go back to intro
|-------3-----3--3--3-----|-------3-----3--3--3----|   then next verse  
|~0-----------------------|-0----------------------|      
|-------------------------|------------------------|      
  1  +  2  +  3  +  4  +    1  +  2  +  3  +  4  +

	Am7              G                Fmaj7   
	It's out of the blue and into the black     
	Am7            G                   Fmaj7  
	They give you this but you pay for that     
	C                G           Am         F  
	And once you're gone you can never come back
	Am7                     G                   
	When you're out of the blue                 
             Fmaj7                        
	And into the black                          
                                            
	The king is gone but he's not forgotten     
	This is the story of a Johnny Rotten        
	It's better to burn out than it is to rust  
	The king is gone but he's not forgotten           

	Hey Hey, my my, Rock and roll can never die               
	There's more to the picture, Than meets the eye,  Hey Hey, my my.   
Comments