Young Neil - Hey Hey My My Chords & Tabs

 

Hey Hey My My Chords & Tabs

Young Neil Chords & Tabs

Version: 3 Type: Tab 0 ratings
1 star 2 stars 3 stars 4 stars 5 stars
comments

Hey Hey My My Tab

   
			title:	Hey Hey My My (Into the Black)
			artist:	Neil Young and Crazy Horse
			album:	Rust Never Sleeps
This is one of my favorite songs on this album. It's really 
easy to play and sounds cool.
This song is played messy with a heavy crunchy distortion.


Riff 1
    Am			     Fmaj7
e|----------------------------------------------------
B|----------------------------1-1-1--1-1-1------------
G|----------------------------2-2-2--2-2-2------------
D|------------0---------------3-3-3--3-3-3------------
A|--0---0-2-3---2-0---0-------0------0----------------
E|------------------3---------------------------------

[ Tab from: http://www.guitartabs.cc/tabs/y/young_neil/hey_hey_my_my_tab_ver_3.html ]
Riff 2
    C				Am	F
e|--------------------------------------1-1-1---------
B|-------------------------------1-1-1--1-1-1---------
G|------------0--0-2-0-----------2-2-2--2-2-2---------
D|--------0-2----------2-0-------2-2-2--3-3-3---------
A|--3---3------------------0-----0--------------------
E|----------------------------------------------------


These riffs remain the same throughout the song, with 
various leads over them

This is the order the riffs are played each verse:

Riff 1 (2x)
Riff 2 (1x)
Riff 1 (1x)

there are a total of 10 verses in the song,
the tenth being a single Riff 1 winding down
into an almost Hendrix-sounding close.
Comments