Young Neil - Hey Hey My My Chords & Tabs

 

Hey Hey My My Chords & Tabs

Young Neil Chords & Tabs

Version: 1 Type: Tab 0 ratings
1 star 2 stars 3 stars 4 stars 5 stars
comments

Hey Hey My My Tab

#----------------------------------PLEASE NOTE---------------------------------#
#This file is the author's own work and represents their interpretation of the #
#song. You may only use this file for private study, scholarship, or research. #
#------------------------------------------------------------------------------##
In article  frodef@stud.cs.uit.no (Frode Vatvedt Fjeld) writes:
>In article , VETTERS@VAX1.ELON.EDU (Steve Vetter  ) writes:
>|> 
>|> Ok It's at nevada but here you go....
>|> 
>|> riff:
>|> D--------0--0----------
>|> A--0-2-3------3-2-0----
>|> 
>|> riff 2 (right after riff 1)
>|> d--------0--0h2p0------
>|> A--0-2-3----------3-2-0
>
>Are you sure it's not like this?:
>
>riff 1:
>D------------0-----------
>A--0---0-2-3-----2-0---0-
>E--------------------3---
>
>riff 2:
>D-----------0---0h2p0---0---
>A-0---0-2-3-----------3---0-
>E---------------------------
>
	I agree with the second version here. And, (just to add to the
confusion), I think there's a third riff I've heard that works off the C
chord in the song. Like this:
riff 3:
G-------------0---2-0--------------
D---------0-2---------2------------
A-3----3-----------------3---3-2-0-
E----------------------------------
Hey they All sound great.. but just to add.. Instead of going to F 
at the end of the Riff.. play an FMAJ7... it sounds so sweet.. so..
Check it out 
>riff 1:
>D------------0-----------
>A--0---0-2-3-----2-0---0-
>E--------------------3---
>
>riff 2:
>D-----------0---0h2p0---0---3 
>A-0---0-2-3-----------3-----  
>E---------------------------  
Hammer out the FMAJ7th after the last note on
the 2nd riff...deaden it a bit with 
the side of your hand  Neil Style..

PS try using the FMAJ7th through the whole song.. 



[ Tab from: http://www.guitartabs.cc/tabs/y/young_neil/hey_hey_my_my_tab.html ]
Comments