Young Neil - After The Goldrush Chords & Tabs

 

After The Goldrush Chords & Tabs

Young Neil Chords & Tabs

Version: 1 Type: Tab 2 ratings
1 star 2 stars 3 stars 4 stars 5 stars
comments

After The Goldrush Tab

after the goldrush

tabbed by kt    (katy.early@ntlworld.com)

e|---0-0-2-2-2-2--0-0-|------0---0-0-2--2-2-0-----|----0-2-2-3-2--2-2-0-0-2-|-0-0-2-----2-0-|
b|-3------------------|--3-3---3--------------3-3-|--3----------------------|-------3-3-----|
g|--------------------|---------------------------|-------------------------|---------------|
d|--------------------|---------------------------|-------------------------|---------------|
a|--------------------|---------------------------|-------------------------|---------------|
E|--------------------|---------------------------|-------------------------|---------------|

[ Tab from: http://www.guitartabs.cc/tabs/y/young_neil/after_the_goldrush_tab.html ]
e|-5-7-5--2-2-2-2-0---|--------0-2-------0--------|----0-2-2-2-2-3-2-2-0-0--|-0-0-2---------|
b|--------------------|-3-5--3-----3-3-1----------|--3----------------------|-------3-3-0-3-|
g|--------------------|---------------------------|-------------------------|---------------|
d|--------------------|---------------------------|-------------------------|---------------|
a|--------------------|---------------------------|-------------------------|---------------|
E|--------------------|---------------------------|-------------------------|---------------|


e|--------------------|-----------------
b|-7-7-7-7-8-7-7-5-5--|-5-5-7-3-3-0-3---
g|--------------------|-----------------
d|--------------------|-----------------
a|--------------------|-----------------
E|--------------------|-----------------
Comments