Young Guns - Doa Chords & Tabs

 

Doa Chords & Tabs

Young Guns Chords & Tabs

Version: 1 Type: Tab 0 ratings
1 star 2 stars 3 stars 4 stars 5 stars
comments

Doa Tab

   
One of my first tabs. This is a pure tune! I decided to put the snippet that they play 
live on too. This is in drop D. neilansm@gmail.com

| /   slide up
| \   slide down
| h   hammer-on
| p   pull-off
| ~   vibrato
| +   harmonic
| x   Mute note
| b   Bend
| pb  Pre-bend
| br  Bend release
| pbr Pre-bend release
| brb Bend release bend

Live Intro:


e|--------------------------------------------------------------|
B|--------------------------------------------------------------|
G|--------------------------------------------------------------|
D|x0-0--------------------x0-0----------------------------------|x2
A|x0-0--(let ring)--------x0-0---(let ring)---------------------|
D|x0-0--------------------x0-0----------------------------------|

fret 1 and 0pen, not 10.
e|----------|-------------------------------------------------------------------|
B|----------|-------------------------------------------------------------------|
G|----------|-------------------------------------------------------------------|
D|----------|-------------------------------------------------------------------|
A|5---------|---------------------------------33------------------   -5---------|
D|--0-3-5---|00-10-000-000-0-3-3-3--00-10-010----00-333--00-10-00-00---0-3-5----|

Verse 1:

[ Tab from: http://www.guitartabs.cc/tabs/y/young_guns/doa_tab.html ]
e|------------------------------------------------|
B|------------------------------------------------|
G|-----5555------7777-------101010------12121212--|
D|-----xxxx------xxxx-------xxxx---------x x x x--|
A|-----3333------5555-------8888--------10101010--|
D|0-0--------0-0--------0-0---------0-0-----------|



e|------------------------------------|---------|
B|------------------------------------|---------|
G|-----5555------7777-----------------|------5--|
D|-----xxxx------xxxx--55-5-5-5-5-5-5-|5-3-5----|
A|-----3333------5555--55-5-5-5-5-5-5-|---------|
D|0-0--------0-0-------55-5-5-5-5-5-5-|---------|

e|------------------------------------------------|
B|------------------------------------------------|
G|-----5555------7777-------101010------12121212--|
D|-----xxxx------xxxx-------xxxx---------x x x x--|
A|-----3333------5555-------8888--------10101010--|
D|0-0--------0-0--------0-0---------0-0-----------|



e|------------------------------------|--------------|
B|------------------------------------|--------------|
G|-----5555------7777-----------------|--------------|
D|-----xxxx------xxxx--55-5-5-5-5-5-5-|00---------3-5|
A|-----3333------5555--55-5-5-5-5-5-5-|00-----3-5----|
D|0-0--------0-0-------55-5-5-5-5-5-5-|00-3-5--------|

Before Breakdown:

"see how deep it GOES"
e|----------------------------------------------------------------------------|
B|----------------------------------------------------------------------------|
G|----------------------------------------------------------------------------|
D|----------------------------------------------------------------------------|
A|----3------5-------7--5-3-5-3-----------------------------------------------|
D|0-3----0-3----0-3-------------5---------------------------------------------|
Comments