Young Guns - Bones Chords & Tabs

 

Bones Chords & Tabs

Young Guns Chords & Tabs

Version: 3 Type: Bass Tab 0 ratings
1 star 2 stars 3 stars 4 stars 5 stars
comments

Bones Bass Tab

   
Intro
F|-----------------------------------------------------------------|
C|-----------------------------------------------------------------|
G|-----------------------------------------------------------------|
B|---------------------------------------------------------X-X-X-X-|X2

F|-----------------------------------------------------------------|
C|-----------------------------------------------------------------|
G|-----------------------------------------------------------------|
B|-3-3-3-3-3-3-7-7-7-7-7-7-7-7-7-7-5-5-5-5-5-5-5-5-5-5-5-5-5-5-5-5-|X2

Verse
F|-----------------------------------------------------------------|
C|-----------------------------------------------------------------|
G|-----------------------------------------------------------------|
B|-7-7-7-7-7-7-101010101010101010105-5-5-5-5-5-5-5-5-5-5-5-5-5-5-5-|X4

Pre Chorus
F|-----------------------------------------------------------------|
C|-----------------------------------------------------------------|
G|-----------------------------------------------------------------|
B|-3-3-3-3-3-3-7-7-7-7-7-7-7-7-7-7-5-5-5-5-5-5-5-5-5-5-5-5-5-5-5-5-|X2

Chorus
F|-----------------------------------------------------------------|
C|-----------------------------------------------------------------|
G|-----------------------------------------------------------------|
B|-0-0-0-0-0-0-3-3-3-3-3-3-3-3-3-3-7-7-7-7-7-7-7-7-5-5-5-5-5-5-5-5-|

F|-----------------------------------------------------------------|
C|---------------------------------------4-6-4---------------------|
G|-----------------------------------4-6-------------------9-9-9-9-|
B|-0-0-0-0-0-0-3-3-3-3-3-3-3-3-3-3-7-----------5~----5-5-5---------|
[ Tab from: http://www.guitartabs.cc/tabs/y/young_guns/bones_btab_ver_3.html ]
Repeat Verse
Repeat Pre Chorus
Repeat Chorus

Breakdown
F|-----------------------------------------------------------------|
C|-------9-9-9-6-6-------9-9-9-6-6-------9-9-9-6-6-6-9-11-9--------|
G|---------------------------------------------------------119-----|
B|-7-7-7-----------7-7-7-----------7-7-7----------------------1211-|

Solo
F|-----------------------------------------------------------------|
C|-----------------------------------------------------------------|
G|-----------------------------------------------------------------|
B|-7-7-7-7-7-7-7-7-7-7-7-7-7-7-7-5-7-7-7-7-7-7-7-7-7-7-7-7-7-7-7-7-|

F|-----------------------------------------------------------------|
C|-----------------------------------------------------------------|
G|-----------------------------------------------------------------|
B|-3-3-3-3-3-3-3-3-3-3-3-3-3-3-3-3-3-3-3-3-3-3-3-3-0-0-0-0-0-0-0-0-|

F|-----------------------------------------------------------------|
C|-----------------------------------------------------------------|
G|-----------------------------------------------------------------|
B|-7--7--7-7--7--7--7--7--7-7--7--7-5--5--5-5--5--5--5--5--5-5--5-5|

Repeat Pre Chorus
Final Chorus
F|-----------------------------------------------------------------|
C|-----------------------------------------------------------------|
G|-----------------------------------------------------------------|
B|-0-0-0-0-0-0-3-3-3-3-3-3-3-3-3-3-7-7-7-7-7-7-7-7-5-5-5-5-5-5-5-5-|X3

F|-----------------------------------------------------------------|
C|-----------------------------------------------------------------|
G|-----------------------------------------------------------------|
B|-0-0-0-0-0-0-3-3-3-3-3-3-3-3-3-3-7~------------------------------|
Comments