You Am I - Mr Milk Chords & Tabs

 

Mr Milk Chords & Tabs

You Am I Chords & Tabs

Version: 2 Type: Bass Tab 0 ratings
1 star 2 stars 3 stars 4 stars 5 stars
comments

Mr Milk Bass Tab

   
Song Title: Mr Milk
Artist: You Am I
----------------------------------------------

                            Mr Milk - YOU AM I

                        from "Hourly, Daily" (1996)

                                                    Transcribed by: Soumali


Allegro = 132   


VERSE                  Q     e  Q     e     Q     e  Q     e              
------------------||---------------------|--------------------|-----------
------------------||*--------------------|--------------------|-----------
------------------||*--2-----0--0-----0--|--2-----0--0-----0--|-----------
------------------||---------------------|--------------------|-----------
                                                                           

                    Q     e  Q     e     Q     e  e  e  e  e                 
-----------------|--------------------|-----------------------|--------------
-----------------|--------------------|--------------------2--|--------------
-----------------|--2-----0--0-----0--|--2-----0--0--2--4-----|--------------
-----------------|--------------------|-----------------------|--------------
                                                                           
[ Tab from: http://www.guitartabs.cc/tabs/y/you_am_i/mr_milk_btab_ver_2.html ]
                    Q     e  q  e  e     Q     e  e  e  e  e                 
-----------------|--------------------|--------------------r--|--------------
-----------------|--4-----2--2--2--2--|--4-----2--2--1-----e--|--------------
-----------------|--------------------|-----------------4--s--|--------------
-----------------|--------------------|--------------------t--|--------------
                                                                           

                    Q     e  Q     e     Q     e  e  e  e  e                       
-----------------|--------------------|--------------------r---||------------------
-----------------|--------------------|--------------------e--*||------------------
-----------------|--2-----0--0-----0--|--2-----0--0--2--4--s--*||------------------
-----------------|--------------------|--------------------t---||------------------
                                                                           



===========================================================================
==                         TABLATURE EXPLANATION                         ==
===========================================================================

----------                            ----------
----5h8--- Hammeron                   ----(8)--- Ghost Note
----------                            ----------
----5p8--- Pulloff                    ----------

----------                            ----------
----5/8--- Slide Up                   -----x---- Dead Note
----------                            ----------
----5\8--- Slide Down                 ----------

----------                            ||------|| Repeat Start & End
----5~~~-- Vibrato                    ||*----*||
----------                            ||*----*||
----------                            ||------||

Rhythm:
  w = whole note            W = dotted whole
  h = half note             H = dotted half
  q = quarter note          Q = dotted quarter
  e = eighth note           E = dotted eighth
  s = sixteenth note        S = dotted sixteenth
  ^ = triplet


Submitted by:  Soumali (soumali@zip.com.au)
Comments