Yorn Pete - Turn Of The Century Chords & Tabs

 

Turn Of The Century Chords & Tabs

Yorn Pete Chords & Tabs

Version: 1 Type: Tab 1 rating
1 star 2 stars 3 stars 4 stars 5 stars
comments

Turn Of The Century Tab

Intro/Verse

e|--------------------------------
B|------0-0----0-0----0-0----0-0--
G|------0-0----0-0----0-0----0-0--
D|------0-0----0-0----0-0----0-0--
A|---3---3---3--3---0--0---0--0---
E|--------------------------------
 

[ Tab from: http://www.guitartabs.cc/tabs/y/yorn_pete/turn_of_the_century_tab.html ]
e|--5--7--5--7--5--7---8---10--7---5--7--5--7--3
B|----------------------------------------------
G|----------------------------------------------
D|----------------------------------------------
A|----------------------------------------------
E|----------------------------------------------
 
This is the piano part played throughout the song 


Chorus

e|-----------------
B|--3--3--3-----0--
G|--0--0--0-----2--
D|--0--0--2-----2--
A|--2--x--2-----0--
E|--3--1--0--------

"And I wondered if we'd speak again"


I think this is pretty correct
Comments