Yonder Mountain String Band - Two Hits And The Joint Turned Brown Chords & Tabs

 

Two Hits And The Joint Turned Brown Chords & Tabs

Yonder Mountain String Band Chords & Tabs

Version: 1 Type: Bass Tab 0 ratings
1 star 2 stars 3 stars 4 stars 5 stars
comments

Two Hits And The Joint Turned Brown Bass Tab

http://www.yondermountain.com/

I think it is almost perfect i apologize this is my first tab.



G|----------------333-3----|-----------------333-3-----|
D|--------3-53---------53--|---------3-53---------53---|
A|-1-13/5-----531--------51|-11-13/5-----531--------51-|
E|-------------------------|---------------------------|
[ Tab from: http://www.guitartabs.cc/tabs/y/yonder_mountain_string_band/two_hits_and_the_joint_turned_brown_btab.html ]
G|----------------333-3----|-----------------333-3-----|
D|--------3-53---------53--|---------3-53---------53---|
A|-1-13/5-----531--------51|-11-13/5-----531--------51-|
E|-------------------------|---------------------------|



You can shift it down if you want it see what you like better.
This is just the main riff that he comes back to.
Comments