Yoko Kanno - Want It All Back Chords & Tabs

 

Want It All Back Chords & Tabs

Yoko Kanno Chords & Tabs

Version: 1 Type: Bass Tab

Want It All Back Bass Tab

   
Want It All Back
Yoko Kanno
Cowboy Bebop CD box set

Standard tuning
---------------------------------------------------------
Notes:  The areas mared "(fill)" consist of only the notes
uses.  Be open with the rythem.
---------------------------------------------------------
Want It All Back



Intro: (After fourth time riff is played
        on piano)
    G
G|-------------------------------|
D|-------3-2-----------3-2-------|
A|-----------4-5-----------4-5---| x2
E|--3-3-----------3-3------------| End intro.
                                  

                                   
Verse 1:  
    Bb                        
G|-------1-0-----------1-0-------|
D|------------2-3----------2-3---|
A|--1-1-----------1-1------------| x2
E|-------------------------------|

    G
G|-------------------------------|
D|-------3-2-----------3-2-------|
A|-----------4-5-----------4-5---| x2
E|--3-3-----------3-3------------|

    Bb
G|-------1-0-----------1-0-------|
D|------------2-3----------2-3---|
A|--1-1-----------1-1------------| x2
E|-------------------------------|

    G
G|-------------------------------|
D|-------3-2-----------3-2-------|
A|-----------4-5-----------4-5---| x2
E|--3-3-----------3-3------------|



Chorus:
    F
G|-------------------------------|
D|-------1-0-----------1-1-------|
A|-----------2-3-----------2-3---| x3
E|--1-1-----------1-1------------|

(fill)
G|-------------------------------|
D|-------------------------------|
A|------1-----1-----1-----1------|
E|--1-1---1-1---1-1---1-1--------|


G|----------------------------------------------------|
D|----------------------------------------------------|
A|----------------------------------------------------|
E|--3-x16-----5-x16-----6-x8-----5-x8-----3-x8--------|

(Fill)
G|----------------|
D|----3----3------|
A|--5----5----5---|
E|----------------|


G|----------------------------------------------------|
D|----------------------------------------------------|
A|----------------------------------------------------|
E|--3-x16-----5-x16-----6-x8-----5-x8-----3-x8--------|


(Pre-verse)
G|------------------------------|
D|------------------------------|
A|------------------------------|
E|--3-3----3-3----3-3----3-3----|



Verse 2:
    Bb                        
G|-------1-0-----------1-0-------|
D|------------2-3----------2-3---|
A|--1-1-----------1-1------------| x2
E|-------------------------------|

    G
G|-------------------------------|
D|-------3-2-----------3-2-------|
A|-----------4-5-----------4-5---| x2
E|--3-3-----------3-3------------|

    Bb
G|-------1-0-----------1-0-------|
D|------------2-3----------2-3---|
A|--1-1-----------1-1------------| x2
E|-------------------------------|

    G
G|-------------------------------|
D|-------3-2-----------3-2-------|
A|-----------4-5-----------4-5---| x2
E|--3-3-----------3-3------------|



Chorus:
    F
G|-------------------------------|
D|-------1-0-----------1-1-------|
A|-----------2-3-----------2-3---| x3
E|--1-1-----------1-1------------|

(fill)
G|-------------------------------|
D|-------------------------------|
A|------1-----1-----1-----1------|
E|--1-1---1-1---1-1---1-1--------|

[ Tab from: http://www.guitartabs.cc/tabs/y/yoko_kanno/want_it_all_back_btab.html ]
G|----------------------------------------------------|
D|----------------------------------------------------|
A|----------------------------------------------------|
E|--3-x16-----5-x16-----6-x8-----5-x8-----3-x8--------|

(Fill)
G|----------------|
D|----3----3------|
A|--5----5----5---|
E|----------------|


G|----------------------------------------------------|
D|----------------------------------------------------|
A|----------------------------------------------------|
E|--3-x16-----5-x16-----6-x8-----5-x8-----3-x8--------|


(Pre-solo)
G|---------------|
D|---------------|
A|---------------|
E|--3-3----3-3---|



Bridge/solos:
    F
G|-------------------------------|
D|-------1-0-----------1-1-------|
A|-----------2-3-----------2-3---| x3
E|--1-1-----------1-1------------|

(fill)
G|-------------------------------|
D|-------------------------------|
A|------1-----1-----1-----1------|
E|--1-1---1-1---1-1---1-1--------|



Last chorus:

G|----------------------------------------------------|
D|----------------------------------------------------|
A|----------------------------------------------------|
E|--3-x16-----5-x16-----6-x8-----5-x8-----3-x8--------|

(Fill)
G|----------------|
D|----3----3------|
A|--5----5----5---|
E|----------------|


G|----------------------------------------------------|
D|----------------------------------------------------|
A|-----------------/12 x8-----------------------------|
E|--3-x16-----5-x8-----------6-x8-----5-x8-----3-x8---|


G|------------------------------|
D|------------------------------|
A|------------------------------|
E|--3-3----3-3----3-3----3-3----|

    G
G|-------------------------------|
D|-------3-2-----------3-2-------|
A|-----------4-5-----------4-5---| x12
E|--3-3-----------3-3------------|



Outro:                           (Slide and repeat until end)
G|----------------------------------------------------|
D|----------------------------------------------------|
A|------------------------------/7--------------------|
E|--1-2---1-2---1-2---1-2--1--0-----------------------|



Lyrics:

You said you wanted to see PARIS
So I took you to the movie
"Bon Amie" or something french like that
And then you said you were embarrassed
Because I never bought you jewelry
Television shopping fixed all that

Funny thing
'Cause I haven't seen you lately
When I called your house
It wasn't you who told me
I heard it all
from your dad
I used up all my money on you BABY
and I want it back
I want it back
I used up all my money tryin' to please ya
Now I want it back
Want it all back
Want it all back

Do you remember late last winter
You said that you had nothin' to wear
Those fake fur pajamas looked real nice
I couldn't take you to Miami
But I took you to the ocean and we
Had some blue Hawaii on the beach

Let me think
If I add up all you owe me
And include my time
I might make it through the summer
And I guess that
ain't too bad
I used up all my money on you BABY
and I want it back
I want it back
I used up all my money tryin' to please ya
Now I want it back

I want it back
Said I want it all back
Gimme my money all back
Want my money all back


---------------------------------------------------------
Tabbed by:  Shaun Molthop
(lyrics from rfblues.aaanime.net)