Yoko Kanno - I Cant Be Cool Chords & Tabs

 

I Cant Be Cool Chords & Tabs

Yoko Kanno Chords & Tabs

Version: 1 Type: Tab

I Cant Be Cool Tab

tuning - drop D

                                                   3 times
------------------------------------------------------------------------------------------|
------------------------------------------------------------------------------------------|
------------------------------------------------------------------------------------------|
-2-2-2--2-3-5-5--5--5--5--0-0-0--0-4-5-7-7--7--7--7---------------------------------------|
-2-2-2--2-3-5-5--5--5--5--0-0-0--0-4-5-7-7--7--7--7---------------------------------------|
-2-2-2--2-3-5-5--5--5--5--0-0-0--0-4-5-7-7--7--7--7---------------------------------------|


------------------------------------------------------------------------------------|
------------------------------------------------------------------------------------|
------------------------------------------------------------------------------------|
-7/9-9-9-9--9--9--9-9-9-9-7--7--7--9--9-9------(0)----------------------------------|
-7/9-9-9-9--9--9--9-9-9-9-7--7--7--9--9-9------(0)--let ring out--------------------|
-7/9-9-9-9--9--9--9-9-9-9-7--7--7--9--9-9------(0)----------------------------------|

      pick close to nut                               >
------------------|------------------|---------0-------|-------0----------|-------------0----|
------------------|--------0---------|-----------2-----|------------------|--------0---------|
-1p0h1p0h1p0h1p0--|-----------2------|-----------------|----------2---0---|----2-------------|
------------------|----2-------------|----2------------|-----2------------|------------------|
------------------|-0----------------|--0--------------|--0---------------|------------------|
------------------|------------------|-----------------|------------------|------------------|

[ Tab from: http://www.guitartabs.cc/tabs/y/yoko_kanno/i_cant_be_cool_tab.html ]
                                                  3 times
------------------------------------------------------------------------------------------|
------------------------------------------------------------------------------------------|
------------------------------------------------------------------------------------------|
-2-2-2--2-3-5-5--5--5--5--0-0-0--0-4-5-7-7--7--7--7---------------------------------------|
-2-2-2--2-3-5-5--5--5--5--0-0-0--0-4-5-7-7--7--7--7---------------------------------------|
-2-2-2--2-3-5-5--5--5--5--0-0-0--0-4-5-7-7--7--7--7---------------------------------------|

--------------------------------------------------------------------|
--------------------------------------------------------------------|
--------------------------------------------------------------------|
-7/9-9-9-9--9--9--9-9-9-9-7--7--7--9--9-9---------------------------|
-7/9-9-9-9--9--9--9-9-9-9-7--7--7--9--9-9---------------------------|
-7/9-9-9-9--9--9--9-9-9-9-7--7--7--9--9-9---------------------------|

                                                  3 times
------------------------------------------------------------------------------------------|
------------------------------------------------------------------------------------------|
------------------------------------------------------------------------------------------|
-2-2-2--2-3-5-5--5--5--5--0-0-0--0-4-5-7-7--7--7--7---------------------------------------|
-2-2-2--2-3-5-5--5--5--5--0-0-0--0-4-5-7-7--7--7--7---------------------------------------|
-2-2-2--2-3-5-5--5--5--5--0-0-0--0-4-5-7-7--7--7--7---------------------------------------|


----------------------------------------------------------------------|
----------------------------------------------------------------------|
----------------------------------------------------------------------|
-7/9-9-9-9--9--9--9-9-9-9-7--7--7--9--9-9---10-10-9-9-10-10-9-7-0-----|
-7/9-9-9-9--9--9--9-9-9-9-7--7--7--9--9-9---10-10-9-9-10-10-9-7 0-----|
-7/9-9-9-9--9--9--9-9-9-9-7--7--7--9--9-9---10-10-9-9-10-10-9-7-0-----|

----------------|---3~-------------|------------------|
-----0----------|------------------|-----0------------|
---2--2---------|------------------|---2--------------|
--2-------------|------------------|-2--------2-------|
-0--------------|------------------|-------------0----|
----------------|------------------|------------------|


there you go, enjoy!!!