Yoko Kanno - Goodnight Julia Chords & Tabs

 

Goodnight Julia Chords & Tabs

Yoko Kanno Chords & Tabs

Version: 1 Type: Tab 1 rating
1 star 2 stars 3 stars 4 stars 5 stars
comments

Goodnight Julia Tab

GoodNight Julia
By: Yoko Kanno

I RANDOMLY FOUND THE SITE IN A SEARCH AND WAS HAPPY TO SEE SOMONE FIGURED OUT THIS TAB.  
I FOUND WAYS TO MAKE IT EASIER USING THE SAME NOTE BUT ON A DIFFERENT STRING AND I FIXED
A MISTAKE OR TWO.  I WISH I KNEW ITALIAN SO i COULD TELL THE GUY THANKS FOR POSTING THE TAB.
ITS A GREAT TUNE AND FUN TO PLAY.  ENJOY.


intro; play 2x
||---0-0-0-0-0-0-0---1-1---------------------------------------------------------------||
||---------------------1-/3-1-1-/3-3-3-4-3-1-------------------3-3h4-3-1---------------||
||o-0-----------------------------------------3-2-3-2-0-------3---------3-3-----------o||
||o-----------------------------------------------------------------------------------o||
||-------------------------------------------------------------------------------------||
||-------------------------------------------------------------------------------------||

[ Tab from: http://www.guitartabs.cc/tabs/y/yoko_kanno/goodnight_julia_tab.html ]
|-------1S4-3----------|            
|---3--6------6-4-4S6--|                         
|-3--------------------|           
|----------------------|
|----------------------|
|----------------------|


|-----4H6S8S6-4---4------------1--------------------12---12---12----12---12---12---12--|
|-3--6----------8---8-6-4S6------4s1---------------------------------------------------|
|3---------------------------3----------3S5-5------------------------------------------|
|--------------------------------------------------------------------------------------|
|--------------------------------------------------------------------------------------| 
|--------------------------------------------------------------------------------------|


|--12---12--13-13-----------|
|-----------------13--15----|
|---------------------------|
|---------------------------|
|---------------------------|
|---------------------------|
Comments