Yo La Tengo - One Pm Again Chords & Tabs

 

One Pm Again Chords & Tabs

Yo La Tengo Chords & Tabs

Version: 1 Type: Tab 0 ratings
1 star 2 stars 3 stars 4 stars 5 stars
comments

One Pm Again Tab

 Yo LA Tengo
 One PM again
From the album "I can hear the heart beating as one"
intro
E--------------------------------------------
B--------------------------------------------
G--------------------------------------------
D-----2-3-3/-5-3-2-3-2p0-0-------------------
A---3----------------------------------------
E--------------------------------------------

E--------------------------------------------
B--------------------------------------------
G--------------------------------------------
D-----2-2-2-3/-5-3-2-3/-5--------------------
A-0h3----------------------------------------
E--------------------------------------------
verse
E--------------------------------------------
B--------------------------------------------
G--------0-------0-----0-------0-----0-----0-
D------2-------2-----3-------2-----2-----3---
A--0h3-------3-----3-----0h3-----3-----3-----
E--------------------------------------------

E--------------------------------------------
B--------------------------------------------
G--------------------------------------------
D----2-5----2/-5----2-5------2-3-2-----------
A--3------3-------3------3-3-------3---------
E--------------------------------------------
verse
E--------------------------------------------
B--------------0-----------------------------
G--------0-----------0--------0-----0-----0--
D------2-----2-----3--------2-----2-----3----
A--0h3-----3-----3------0h3-----3-----3------
E--------------------------------------------

E--------------------------------------------
B--------------------------------------------
G--------------------------------------------
D----2/-5---2-5---2/-5------2-3-2------------
A--3------3-----3-------3-3-------3----------
E--------------------------------------------
intro made slightly different
E--------------------------------------------
B--------------------------------------------
G--------------------------------------------
D-----2-3-3/-5-3-2-3-2p0-0-------------------
A-0h3----------------------------------------
E--------------------------------------------
[ Tab from: http://www.guitartabs.cc/tabs/y/yo_la_tengo/one_pm_again_tab.html ]
E--------------------------------------------
B--------------------------------------------
G-------------------5-4-2p0------------------
D-----2-2-2-3/-5-7---------------------------
A-0h3----------------------------------------
E--------------------------------------------

Theirs a solo next that I can't figure out because
i'm a fat lazy moron
verse
E--------------------------------------------
B--------------------------------------------
G--------0-----0-----0--------0-----0-----0--
D------2-----2-----3--------2-----2-----3----
A--0h3-----3-----3------0h3-----3-----3------
E--------------------------------------------

E----------------------------------------------------------
B----------------------------------------------------------
G----------------------------------------------------------
D----2/-5----2-5----2/-5----2-5----2/-5---2-5------2-3-2---
A--3-------3------3-------3------3------3------3-3-------3-
E----------------------------------------------------------
There's an acoustic guitar that almost inaudible but I belive it does
this throughout the song (strum it one and two and three and four and)
    
E----------------------------------------------------------
B---1-------1-------0-------0------------------------------
G---0-------0-------0-------0------------------------------
D---2-------3-------2-------2------------------------------
A---3-------3-------3-------3------------------------------
E----------------------------------------------------------

Lyrics
Its one PM again
I guess I'm ready to begin
and it's really                 and i'm feeling 
		(na na na na na)               (na na na na na)
Lets not wait any
You don't halve to show me how
But I'm not ready to right now
Cause I'm feeling		 and it's really
		 (na na na na na)          
     (na na na na na)
let's not wait any
and we don't need today
please don't hurry anyway
I'm on my own you know
Settling home here
so lets make sure we're sure
and it's really                and I'm feeling
	       (na na na na na) 	      (na na na na na)
Let's not wait any
Comments