Yo La Tengo - Damage Chords & Tabs

 

Damage Chords & Tabs

Yo La Tengo Chords & Tabs

Version: 2 Type: Bass Tab 0 ratings
1 star 2 stars 3 stars 4 stars 5 stars
comments

Damage Bass Tab

   
Heres a tab for inclusion into the archive.Thanks
Alex Holt
Damage-Yo La Tengo


G|---------------------------------|
D|---------------------------------|   10x
A|-3-3-3-3-3-3-3-3-----------------|  
E|-----------------5-5-5-5-5-5-5-5-|

G|---------------------------------|
D|-3-3-3-3-3-3-3-3-2-2-2-2-2-2-2-2-| 
A|---------------------------------|  
E|---------------------------------|

G|---------------------------------|
D|-3-3-3-3-3-3-3-3-5-5-5-5-5-5-5-5-|  
A|---------------------------------|
E|---------------------------------|

G|---------------------------------|
D|---------------------------------|   4x
A|-3-3-3-3-3-3-3-3-----------------|  
E|-----------------5-5-5-5-5-5-5-5-|

G|---------------------------------|
D|-3-3-3-3-3-3-3-3-2-2-2-2-2-2-2-2-| 
A|---------------------------------|
E|---------------------------------|

G|---------------------------------|
D|-3-3-3-3-3-3-3-3-5-5-5-5-5-5-5-5-|  
A|---------------------------------|
E|---------------------------------|
[ Tab from: http://www.guitartabs.cc/tabs/y/yo_la_tengo/damage_btab_ver_2.html ]
G|-2-2-2-2-2-2-2-2-----------------|
D|-----------------2-2-2-2-2-2-2-2-|  
A|---------------------------------|  
E|---------------------------------|

G|---------------------------------|
D|---------------------------------|   4x
A|-3-3-3-3-3-3-3-3-----------------|  
E|-----------------5-5-5-5-5-5-5-5-|

G|---------------------------------|
D|-3-3-3-3-3-3-3-3-2-2-2-2-2-2-2-2-|  
A|---------------------------------|
E|---------------------------------|

G|---------------------------------|
D|-3-3-3-3-3-3-3-3-5-5-5-5-5-5-5-5-| 
A|---------------------------------|
E|---------------------------------|

G|---------------------------------|
D|-3-3-3-3-3-3-3-3-2-2-2-2-2-2-2-2-|  
A|---------------------------------|
E|---------------------------------|

G|---------------------------------|
D|-3-3-3-3-3-3-3-3-5-5-5-5-5-5-5-5-| 
A|---------------------------------|
E|---------------------------------|

G|---------------------------------|
D|---------------------------------|   5x Fade Out
A|-3-3-3-3-3-3-3-3-----------------|  
E|-----------------5-5-5-5-5-5-5-5-|

This song is real easy. Sorry for making it harder then it is.
Any questions/comments send to Alex Holt-Matador129@AOL.COM
Comments