Yngwie Malmsteen - Fury Chords & Tabs

 

Fury Chords & Tabs

Yngwie Malmsteen Chords & Tabs

Version: 1 Type: Tab 0 ratings
1 star 2 stars 3 stars 4 stars 5 stars
comments

Fury Tab

#----------------------------------PLEASE NOTE---------------------------------#
#This file is the author's own work and represents their interpretation of the #
#song. You may only use this file for private study, scholarship, or research. #
#------------------------------------------------------------------------------##
From: letostak@netcom.com (Judy Letostak)

Yngwie Malmsteen   "Fury"
from Trilogy
letostak@netcom.com


Jet sounds                  Drums only
|-------------------------|---------------------|--------------------------|
|-------------------------|---------------------|--------------------------|
|-------------------------|---------------------|--------------------------|
|-------------------------|---------------------|--------------------------|
|-------------------------|---------------------|----3--2--------2---------|
|-------------------------|---------------------|----------5--3-----3--2--0|


|-------------------------|-------------------------|----------------------|
|-------------------------|-------------------------|----------------------|
|-------------------------|-------------------------|----------------------|
|-------------------------|-------------------------|----------------------|
|----------------2-----3--|-2--5--3--2--------------|----------------2----3|
|-0--3--2--5--3-----5-----|-------------5--3--2--0--|-0--3--2--5--3-----5--|


|-------------------------|-------------------------|-----------------------|
|-------------------------|-------------------------|-----------------------|
|-------------------------|-------------------------|-----------------------|
|-------------------------|-------------------------|-----------------------|
|-2--5--3--2--------------|----------------2-----3--|-2--5--3--2------------|
|-------------5--3--2--0--|-0--3--2--5--3-----5-----|-------------5--3--2--0|


|-------------------------|------------------------|
|-------------------------|------------------------|
|-------------------------|------------------------|
|-------------------------|------------------------|
|----------------2-----3--|-2--5--3--2-------------|
|-0--3--2--5--3-----5-----|-------------5--3--2--0-|


Verse
I now will tell you...

|-------------------------|-------------------------|-----------------------|
|-------------------------|-------------------------|-----------------------|
|-------------------------|-------------------------|-----------------------|
|-------------------------|-------------------------|-----------------------|
|-------------------------|-------------------------|-----------------------|
|-0--0--0--0--0--0--0--0--|-0--0--0--0--0--0--0--0--|-0--0--0--0--0--0--0--0|


|-------------------------|-------------------|----------------------------|
|-------------------------|-------------------|----------------------------|
|----------------------7--|-------------------|----------------------------|
|----------------------7--|-7-----------------|----------------------------|
|-3--2--------2--------5--|-5--5--5--5--5--5--|-5--5--5--5--5--7--9--------|
|-------5--3-----5--3-----|-------------------|----------------------3-----|


|-------------------------|-----------------------|------------------------|
|-------------------------|-----------------------|------------------------|
|-------------------------|-----------------------|------------------------|
|-------------------------|-------------------9---|------------------------|
|----------------------6~-|-6--6--6--6--7--9--7---|------------------------|
|-3--3--3--3--3--3--3-----|-------------------0---|-0--0--0--0--0--0--0--0-|
|                         |                       |                        |
|            1/2          |                       |                        |
|------------14br~--------|----12~----------------|(12~)-------------------|
|-------------------------|-----------------------|------------------------|
|-------------------------|-----------------------|------------------------|
|-------------------------|-----------------------|------------------------|
|-------------------------|-----------------------|------------------------|
|-------------------------|-----------------------|------------------------|


|-------------------------|-------------------------|----------------------|
|-------------------------|-------------------------|----------------------|
|-------------------------|-------------------------|---------------------7|
|-------------------------|-------------------------|---------------------7|
|-------------------------|-------------------------|-3--2--------2-------5|
|-0--0--0--0--0--0--0--0--|-0--0--0--0--0--0--0--0--|-------5--3-----5--3--|
|                         |                         |                      |
|                         |                 1 1/2   |                      |
|-------------------------|-------------------21b~--|----------------------|
|-------------------------|-------------------------|----------------------|
|-------------------------|-------------------------|----------------------|
|-------------------------|-------------------------|----------------------|
|-------------------------|-------------------------|----------------------|
|-------------------------|-------------------------|----------------------|


|-------------------|------------------|-------------------|---------------|
|-------------------|------------------|-------------------|---------------|
|----------------5--|------------------|-------------------|---------------|
|----------------5--|------------------|-------------------|---------------|
|-5--5--5--5--5--3--|-3--3--2----------|-------------------|---------------|
|-------------------|----------3p2--0--|0--0--0--0--0--0--0|0-0-0-0-0-0-0--|
|                   |                  |                   |               |
|1 1/2              |                  |                   |               |
|21b----------------|------------------|-------------------|---------------|
|-------------------|------------------|-------------------|---------------|
|-------------------|------------------|-------------------|-----------7-9-|
|-------------------|------------------|-------------------|---------9-----|
|-------------------|------------------|-------------------|7-9-10-7-2-5-7-|
|-------------------|------------------|-------------------|0-2-3--5-------|


Pre-Chorus
repeat 12 times  4x               4x
|t19p12h15p12-||-t19p11h14p11-||-t19p12h15p12--t20p12h15p12||
|-------------||--------------||---------------------------||
|-------------||--------------||---------------------------||
|-------------||--------------||---------------------------||
|-------------||--------------||---------------------------||
|-------------||--------------||---------------------------||

4x
|-t19p12h14p12-||-t19p11h14p11--t19p11h14p11--t19p11h14p11-14s19-|
|--------------||------------------------------------------------|
|--------------||------------------------------------------------|
|--------------||------------------------------------------------|
|--------------||------------------------------------------------|
|--------------||------------------------------------------------|


Chorus

|-------------------------|-------------------------|-----------------------|
|-------------------------|-------------------------|-----------------------|
|-------------------------|-------------------------|-----------------------|
|-------------------------|-------------------------|-----------------------|
|-------------------------|-------------------------|-2--2--2--2--6--6--6--6|
|-4--4--4--4--4--4--4--4--|-5--5--5--5--3--3--3--3--|-----------------------|


|-------------------------|-------------------------|-----------------------|
|-------------------------|-------------------------|-----------------------|
|-------------------------|-------------------------|-----------------------|
|-------------------------|-------------------------|-----------------------|
|-7--7--7--7--5--5--5--5--|-4--4--4--4--4--4--4--4--|-6--6--6--6--4--4--4--4|
|-------------------------|-------------------------|-----------------------|


|-------------------------|-------------------------|-----------------------|
|-------------------------|-------------------------|-----------------------|
|-------------------------|-------------------------|-----------------------|
|-------------------------|-------------------------|-----------------------|
|-4--4--4--4--2--2--2--2--|-4--4--4--4--6--6--6--6--|-4--4--4--4--4--4--4--4|
|-------------------------|-------------------------|-----------------------|


|-------------------------|-------------------------|-----------------------|
|-------------------------|-------------------------|-----------------------|
|-------------------------|-------------------------|-----------------------|
|-------------------------|-------------------------|-----------------------|
|-------------------------|-2--2--2--2--6--6--6--6--|-7--7--7--7--5--5--5--5|
|-5--5--5--5--3--3--3--3--|-------------------------|-----------------------|


|-------------------------|-------------------------|-----------------------|
|-------------------------|-------------------------|-----------------------|
|-------------------------|-------------------------|-----------------------|
|-------------------------|-------------------------|-----------------------|
|-4--4--4--4--6--6--6--6--|-7--7--7--7--6--6--6--6--|-7--7--7--7--9--9--9--9|
|-------------------------|-------------------------|-----------------------|


|-------------------------|-------------------------|----------------------|
|-------------------------|-------------------------|-15bf~----------------|
|-------------------------|-------------------------|----------------------|
|-2-----------------------|----------------------2--|----------------------|
|-2-----------------------|-3--2--------2--------2--|----------------------|
|-0-----------------------|-------5--3-----3--2--0--|----------------------|


|-15-12-14-15-14-12-19-12-14-15-14-12|17-12-14-15-14-12-19-12-14-15-14-12--|
|------------------------------------|-------------------------------------|
|------------------------------------|-------------------------------------|
|------------------------------------|-------------------------------------|
|------------------------------------|-------------------------------------|
|------------------------------------|-------------------------------------|


|-17bf-rb17--|----------17-20-19-17----19-17-----17-17-------|-------------|
|------------|-17h19-20-------------20-------20--------20p19p|17-20-19-17p-|
|------------|-----------------------------------------------|-------------|
|------------|-----------------------------------------------|-------------|
|------------|-----------------------------------------------|-------------|
|------------|-----------------------------------------------|-------------|


--------------------------------------------|-------------------------------|
16--19p17p16--16h17p16--------16h17p16------|-------------------------------|
-----------------------17p16-----------17p16|17-16--------------------------|
--------------------------------------------|------19p17-16----17-16s14h16h-|
--------------------------------------------|---------------19--------------|
--------------------------------------------|-------------------------------|

                                                 1 1/2
----------------------15h17h19p17-19p17-15----15-19br-br--br---------------|
-------------16h17h19----------------------19------------------------------|
----15s16h17---------------------------------------------------------------|
-17------------------------------------------------------------------------|
---------------------------------------------------------------------------|
---------------------------------------------------------------------------|
[ Tab from: http://www.guitartabs.cc/tabs/y/yngwie_malmsteen/fury_tab.html ]
                                          echo on
|20p17--------17-------17s14-|----------------------------------------------|
|------19h20-----19p16-------|17p14s16h17-19-17p16--------------------------|
|----------------------------|---------------------17p16s14-----------------|
|----------------------------|------------------------------17-16-14s13h14--|
|----------------------------|----------------------------------------------|
|----------------------------|----------------------------------------------|

                                Dive Eb with bar 1 1/2
----------------------------------|----------------------------------------|
----------------------------------|----------------------------------------|
----------------------------------|----------------------------------------|
16-14p13--------------------------|----------------------------------------|
---------15p14p12-----------------|----------------------------------------|
------------------15p14--12p11~---|----------------------------------------|


|---------------------|------------------------|---------------------------|
|---------------------|------------------------|---------------------------|
|4--------------------|----------------5----4--|---------------------------|
|4--------------------|----------------5----4--|---------------------------|
|2--2--2--2--2--2--2--|-2--2--2--2--2--3----2--|--2--2--2--2--2--2---------|
|---------------------|------------------------|---------------------------|


|-------------------------|----------------------|-------------------------|
|-------------------------|----------------------|-------------------------|
|-------------------------|----------------------|-------------------------|
|-7--6--4-----6-----------|----------------------|-------------------------|
|----------7-----7--6--4~-|--4--4--4--4--4--4--4-|-4--4--4--4--4--4--4--4--|
|-------------------------|----------------------|-------------------------|
|                         |                      |                         |
|                         |                      |                         |
|-------------9s----------|-21-------------------|---------12-------12-14--|
|-------------------------|------------14~-------|---14-16----14-16--------|
|-------------------------|----------------------|-x-----------------------|
|-------------------------|----------------------|x------------------------|
|-------------------------|----------------------|-------------------------|
|-------------------------|----------------------|-------------------------|


Solo

|-16p14p12-16s17p16p14-16-14-------14-|------------------------------------|
|----------------------------17-16----|-17-16-14-17p16p14s13-16-14-13-14~--|
|-------------------------------------|------------------------------------|
|-------------------------------------|------------------------------------|
|-------------------------------------|------------------------------------|
|-------------------------------------|------------------------------------|

                                              1/2   1/2
|---------16-21----------18----------------------|-------------------------|
|17----17-------17-21p17----17-21-19p17----17----|---------------------14--|
|---18----------------------------------20----20b|--20b-------------13-----|
|------------------------------------------------|---------------14--------|
|------------------------------------------------|------------16-----------|
|------------------------------------------------|-------------------------|


|16p12----16~--12----------|--------------|---16-21-16----------------17-19-|
|------14---------14-12bfr-|--9-----------|------------17----17-19-21-------|
|--------------------------|-----11bf~----|18-------------18----------------|
|--------------------------|--------------|---------------------------------|
|--------------------------|--------------|---------------------------------|
|--------------------------|--------------|---------------------------------|

                     1 1/2                              1/2
21-----|-------17-19-21b~--|-(21b~)---|-21bf----21bf~--|--------------------|
---17--|-19-21-------------|----------|----------------|16br~--14-17-16-14--|
-------|-------------------|----------|----------------|--------------------|
-------|-------------------|----------|----------------|------------------16|
-------|-------------------|----------|----------------|--------------------|
-------|-------------------|----------|----------------|--------------------|


|------------12--|17p16p14s13------------------------------|----------------|
|16-14-----------|------------16-14-13---------------------|----------------|
|------16bfr-----|---------------------16-14-13------------|----------------|
|----------------|------------------------------16-14-13-16|------------13h-|
|----------------|-----------------------------------------|15h16p15h16-----|
|----------------|-----------------------------------------|----------------|


----------------------------------|----------|-12-14-15-12-14-15s17-14-15--|
---------------------13h14p13h14--|-15bf~----|-----------------------------|
---------13h14p13h14--------------|----------|-----------------------------|
14p13h14--------------------------|----------|-----------------------------|
----------------------------------|----------|-----------------------------|
----------------------------------|----------|-----------------------------|

                            1 1/2 bend up 2 wide vibrato
|17s19-15-17-19s20-17-19-20-20b---|----------------------------------------|
|---------------------------------|----------------------------------------|
|---------------------------------|----------------------------------------|
|---------------------------------|----------------------------------------|
|---------------------------------|----------------------------------------|
|---------------------------------|----------------------------------------|


Out Chorus
No, it's burning like a flame...

|19~-------|20--19--17------|-----17--|-19--17--15------|------------15~---|
|----------|------------20--|-19------|-------------19--|-17~--------------|
|----------|----------------|---------|-----------------|------------------|
|----------|----------------|---------|-----------------|------------------|
|----------|----------------|---------|-----------------|------------------|
|----------|----------------|---------|-----------------|------------------|

                                                       dive w/bar
|17--15h17p15s14------|---------------|---------------|---------------19~--|
|----------------17---|-17~----16~----|-17~----19~----|-17-----------------|
|---------------------|---------------|---------------|--------------------|
|---------------------|---------------|---------------|--------------------|
|---------------------|---------------|---------------|--------------------|
|---------------------|---------------|---------------|--------------------|


|20--19--17------|---------17~----|-19--17--15------|------------15~-------|
|------------20--|19~-------------|-------------19--|-17~------------------|
|----------------|----------------|-----------------|----------------------|
|----------------|----------------|-----------------|----------------------|
|----------------|----------------|-----------------|----------------------|
|----------------|----------------|-----------------|----------------------|

                                                          dive w/bar
|-17--15h17p15s14-------|----------------|---------------------------------|
|-------------------17--|-17~----p16~----|-h17~---17bf----17---------------|
|-----------------------|----------------|---------------------------------|
|-----------------------|----------------|---------------------------------|
|-----------------------|----------------|---------------------------------|
|-----------------------|----------------|---------------------------------|

  by      the       fu     -   ry...
|-----------------|--------------------|-----------------|--------(12)s17~-|
|17~-------16~----|-17~--------s19~----|-20~------19~----|--20~------------|
|-----------------|--------------------|-----------------|-----------------|
|-----------------|--------------------|-----------------|-----------------|
|-----------------|--------------------|-----------------|-----------------|
|-----------------|--------------------|-----------------|-----------------|


|17bf--17bfr--15-17h19p17p15----15h17-19h20p19|p17-------17-----------------|
|----------------------------19---------------|----20-20----20-19-17-15-19p-|
|---------------------------------------------|-----------------------------|
|---------------------------------------------|-----------------------------|
|---------------------------------------------|-----------------------------|
|---------------------------------------------|-----------------------------|

              1/2                                         1/2
-------------14br--|p12-10------------------------------|-------------------|
17p15-17bf~--------|-------12-11-10s8---8-7-------------|------------5------|
-------------------|------------------9-----9--7--5--4--|-4b~--4s5h7----7---|
-------------------|------------------------------------|-------------------|
-------------------|------------------------------------|-------------------|
-------------------|------------------------------------|-------------------|


------5-----7h8p7p5--------8s10p8-7--------10s12p10p8---------12s14p12p10---|
5h7h8---7-8---------7--8p5----------10p8p7------------12p10p8---------------|
----------------------------------------------------------------------------|
----------------------------------------------------------------------------|
----------------------------------------------------------------------------|
----------------------------------------------------------------------------|

              1/2
---------10-|-14br--12--------------------------|------11h14-17p14p11-------|
13p12h13----|----------15-13-12-14-12-11-12bf~--|12s13-----------------13---|
------------|-----------------------------------|---------------------------|
------------|-----------------------------------|---------------------------|
------------|-----------------------------------|---------------------------|
------------|-----------------------------------|---------------------------|


17p11h14p11----17p11h14p11----17p14p11-----|-14s20bfr--19-20-17-20-15-20----|
------------13-------------13----------13--|-----------------------------19-|
-------------------------------------------|--------------------------------|
-------------------------------------------|--------------------------------|
-------------------------------------------|--------------------------------|
-------------------------------------------|--------------------------------|


20-----20------------15--19h20p19p17-----------21bf~--|
---17--------------------------------20-19-17---------|
-----------16h17h19-----------------------------------|
------------------------------------------------------|
------------------------------------------------------|
------------------------------------------------------|


|--------------------------|
|----------------------5---|
|----------------------4---|
|----------------------2---|
|-3--2--------2--------2---|
|-------5--3-----3--2--0---|

I now will tell you all a story
that no one ever heard before
it is the tale about the fury
remember wisdom is your strength

It said you're such a fool
just let my evil rule

No, it's burning like a flame,
now nothing seems the same
I've lost control of mind and body
my soul is in it's hand
it's wish is my command
Enslaved forever by the fury
by the fury

At first it came to me in visions
and that was filling me with pain
and when my fear became desire
to let the demon burn my soul

It said don't fight in vain
I'll make you love the pain

Chorus

I now have told you all my story
and still for you it's not too late
Don't draw your sword just use your wisdom
and never let this be your fate

Oh no it's here again
This demon loves the pain
Comments