Yngwie Malmsteen - Fugue Chords & Tabs

 

Fugue Chords & Tabs

Yngwie Malmsteen Chords & Tabs

Version: 1 Type: Tab 0 ratings
1 star 2 stars 3 stars 4 stars 5 stars
comments

Fugue Tab

   
Yngwie Malmsteen
Fugue

Tuning: Eb

e------7---12-12--11-12-14---15-12-14-11-12----11-----------------|
B----8--------------------------------------13----13-12-10--------|
G--9-------------------------------------------------------12-11--|
D-----------------------------------------------------------------|
A-----------------------------------------------------------------|
E-----------------------------------------------------------------|

e----------12-12--11-12-14---15-14-12-11--------------------------|
B-------12-------------------------------13-12-10-----------------|
G--9h12-------------------------------------------12-11-9-8-9-----|
D-----------------------------------------------------------------|
A-----------------------------------------------------------------|
E-----------------------------------------------------------------|

e-------------------8--------------------------------------------|
B-----------8-10-12---12-10-8-7----8-12-8-7tr8-------------------|
G--9-8-9-11------------------------------------------------------|
D----------------------------------------------------------------|
A----------------------------------------------------------------|
E----------------------------------------------------------------|

e-------------------8--------------12p7---7-12p7-----16p12------12-16p12----|
B-----------8-10-12---12-10-8-7--------8-8------8---------12--12--------12--|
G--9-8-9-11-----------------------------9-------------------13--------------|
D---------------------------------------------------------------------------|
A---------------------------------------------------------------------------|
E---------------------------------------------------------------------------|

e------12---17-17-16-17-19--20-17-19-16-17----16----------------|
B----13------------------------------------18----18-17-15-------|
G--14-----------------------------------------------------17-16-|
D---------------------------------------------------------------|
A---------------------------------------------------------------|
E---------------------------------------------------------------|

e-----------------------13------------------------17-17---19p14----------|
B--------------13-15-17----17-15-13------------17---------------16-------|
G--14-13-14-16----------------------16---14h17---------------------16----|
D---------------------------------------------------------------------16-|
A------------------------------------------------------------------------|
E------------------------------------------------------------------------|

e-------------------8--------------------------------------------|
B-----------8-10-12---12-10-8-7----8-12-8-7tr8-------------------|
G--9-8-9-11------------------------------------------------------|
D----------------------------------------------------------------|
A----------------------------------------------------------------|
E----------------------------------------------------------------|

e-------------------8--------------15-14-12-11------------------------------|
B-----------8-10-12---12-10-8-7----------------13-12-10---------------------|
G--9-8-9-11---------------------------------------------12-11-9-8-9---------|
D---------------------------------------------------------------------------|
A---------------------------------------------------------------------------|
E---------------------------------------------------------------------------|

e--12-------12-15-14tr15-12----15----17-19-20-19-20-17-20----20----20--------|
B-----12-13-----------------15----------------------------20----19----17-16--|
G----------------------------------------------------------------------------|
D----------------------------------------------------------------------------|
A----------------------------------------------------------------------------|
E----------------------------------------------------------------------------|

e-----19p15--------------------|
B--17-------17----16-17--------|
G--------------16--------------|
D------------------------------|
A------------------------------|
E------------------------------|

e-------------------8-------------------------------------11tr12----|
B-----------8-10-12---12-10-8-7----8-12-8--7tr8---12tr13------------|
G--9-8-9-11---------------------------------------------------------|
D-------------------------------------------------------------------|
A-------------------------------------------------------------------|
E-------------------------------------------------------------------|
[ Tab from: http://www.guitartabs.cc/tabs/y/yngwie_malmsteen/fugue_tab.html ]
e----------12-12--11-12-14---15-14-12-11------------------------|
B-------12-------------------------------13-12-10---------------|
G--9p12-------------------------------------------12-11-9-8-9---|
D---------------------------------------------------------------|
A---------------------------------------------------------------|
E---------------------------------------------------------------|

e-------------------8--------------------------------------------|
B-----------8-10-12---12-10-8-7----8-12-8-7tr8-------------------|
G--9-8-9-11------------------------------------------------------|
D----------------------------------------------------------------|
A----------------------------------------------------------------|
E----------------------------------------------------------------|

e-------------------8------------------------16p12----------12-16p12-----|
B-----------8-10-12---12-10-8-7----8-12-8----------12----12----------12--|
G--9-8-9-11-------------------------------------------13-----------------|
D------------------------------------------------------------------------|
A------------------------------------------------------------------------|
E------------------------------------------------------------------------|

e-----------17-17-16-17-19--20-17-19-16-17----16----------------|
B--------17--------------------------------18----18-17-15-------|
G--14h17--------------------------------------------------17-16-|
D---------------------------------------------------------------|
A---------------------------------------------------------------|
E---------------------------------------------------------------|

e-----------17-17-16-17-19----20-19-17-16--------------------------|
B--------17-------------------------------18-17-15-----------------|
G--14h17-------------------------------------------17-16-14-13-14--|
D------------------------------------------------------------------|
A------------------------------------------------------------------|
E------------------------------------------------------------------|

e--17-------17-20-19tr20-17----20----10-12-13-12-13-10-13----13----13--------|
B-----17-18-----------------20----------------------------13----12----10-9---|
G----------------------------------------------------------------------------|
D----------------------------------------------------------------------------|
A----------------------------------------------------------------------------|
E----------------------------------------------------------------------------|

e-----12p8------------------|
B--10------10---9-10--------|
G-------------9-------------|
D---------------------------|
A---------------------------|
E---------------------------|

e--13-17-16-17-16-17---12-17-16-17-16-17-----17-16-17-16-17-----17-16-17-16-17-|
B-----------------------------------------15----------------13-----------------|
G------------------------------------------------------------------------------|
D------------------------------------------------------------------------------|
A------------------------------------------------------------------------------|
E------------------------------------------------------------------------------|

e-----16-14-16-14-16-------17-16-17-16-17--------------------------------|
B--12-------------------13-----------------------------------------------|
G------------------------------------------------------------------------|
D------------------------------------------------------------------------|
A------------------------------------------------------------------------|
E------------------------------------------------------------------------|

e--19-17-16------------------------------------------------------------------|
B-----------18-17-15---------------------------------------------------------|
G--------------------17-16-14s13-14-16-14-13---------------------------------|
D--------------------------------------------15-14-12------------------------|
A-----------------------------------------------------15-14-12-11------------|
E----------------------------------------------------------------------------|

e--13-17-16-17-16-17---12-17-16-17-16-17-----17-16-17-16-17-----17-16-17-16-17-|
B-----------------------------------------15----------------13-----------------|
G------------------------------------------------------------------------------|
D------------------------------------------------------------------------------|
A------------------------------------------------------------------------------|
E------------------------------------------------------------------------------|

e-----16-14-16-14-16-------17-16-17-16-17--------------------------------|
B--12-------------------13-----------------------------------------------|
G------------------------------------------------------------------------|
D------------------------------------------------------------------------|
A------------------------------------------------------------------------|
E------------------------------------------------------------------------|
Comments