Yngwie Malmsteen - Fugetta Chords & Tabs

 

Fugetta Chords & Tabs

Yngwie Malmsteen Chords & Tabs

Version: 1 Type: Tab 0 ratings
1 star 2 stars 3 stars 4 stars 5 stars
comments

Fugetta Tab

fugetta-yngwie malmasteen :
---------------------------


Riff : 1
---------

e |-----6~----------------------------------------------------------------------------|
B |4~--------7~---6h7h6h4--7-6-4---6----4---6---7-6h7h6h4-6---4-----6-----7-6h7h6h4-6-|
G |------------------------------7---3~---3---3-------------3---3-3---3-3-------------|
D |-----------------------------------------------------------------------------------|
A |-----------------------------------------------------------------------------------|
E |-----------------------------------------------------------------------------------|

e |--6---------------------4-6-8-9-8-6-9-8-6-5-8-6-----6---8-9-9-11-11h13-11h13-|
B |4---7-6-4-7-6-4---4-6-7------------------------6-----------------------------|
G |----------------3------------------------------------------------------------|
D |-----------------------------------------------------------------------------|
A |-----------------------------------------------------------------------------|
E |-----------------------------------------------------------------------------|


e |11h13-11h13-13-11-13-14-13-11----------13-11-13----13-11-13----13-11-13-----13-11-13----|
B |------------------------------14-13-14----------14----------11----------13-----------11-|
G |----------------------------------------------------------------------------------------|
D |----------------------------------------------------------------------------------------|
A |----------------------------------------------------------------------------------------|
E |----------------------------------------------------------------------------------------|


e |9----------11----------13----------11-13-11-9-------9-----------------------------------|
B |--11-10-11----11-10-11----11-10-11------------13-11---13-11-10-13-11--------------------|
G |---------------------------------------------------------------------11-10-8------------|
D |-----------------------------------------------------------------------------11~-10~-8~-|
A |----------------------------------------------------------------------------------------|
E |----------------------------------------------------------------------------------------|

U will do Riff 1 again but with some changes :
-----------------------------------------------

[ Tab from: http://www.guitartabs.cc/tabs/y/yngwie_malmsteen/fugetta_tab.html ]
e |-----6~-------------------------------------------------------------------------|
B |4~--------7~---6-4-7-6-4---6------4---6---7-6h7h6h4-6---4-----6-----7-6h7h6h4-6-|
G |-------------------------7---3~-----3---3-------------3---3-3---3-3-------------|
D |--------------------------------------------------------------------------------|
A |--------------------------------------------------------------------------------|
E |--------------------------------------------------------------------------------|


e |--6---------------------------4-6-8-9-8-6-9-8-6-5-8-6-----6---8-9-9-11-11h13-11h13---|
B |4---7-6-4---6-4---6-4---4-6-7--------------------------6-----------------------------|
G |----------9-----7-----3--------------------------------------------------------------|
D |-------------------------------------------------------------------------------------|
A |-------------------------------------------------------------------------------------|
E |-------------------------------------------------------------------------------------|

e |11h13-11h13-13-11-13-14-13-11----------13-11-13----13-11-13----13-11-13-----13-11-13----|
B |------------------------------14-13-14----------14----------11----------13-----------11-|
G |----------------------------------------------------------------------------------------|
D |----------------------------------------------------------------------------------------|
A |----------------------------------------------------------------------------------------|
E |----------------------------------------------------------------------------------------|


e |9----------11----------13----------11-13-11-9-------9-----------------|
B |--11-10-11----11-10-11----11-10-11------------13-11---13-11-10-13-11~-|
G |----------------------------------------------------------------------|
D |----------------------------------------------------------------------|
A |----------------------------------------------------------------------|
E |----------------------------------------------------------------------|


Riff : 2
--------

e |------------------------------------------------------|
B |11-10-11----------9-8-9---------7-6-7-------6-5-6-----|
G |---------11-10-11-------10-8-10-------8-6-8-------6-5-|
D |------------------------------------------------------|
A |------------------------------------------------------|
E |------------------------------------------------------|

e |------------------------------------|
B |--4-3-4-2-1-------------------------|
G |6-----------2h3h2h3h2h3h2h3h2-2-3-2-|
D |------------------------------------|
A |------------------------------------|
E |------------------------------------|

e |------------5-6---5-6-8-----------------------|
B |--2---2-4-6-------6-6---6---------------------|
G |5---5-------------5-6-----8-6-----------------|
D |------------------------------8-6-4-3---------|
A |--------------------------------------6-4-3-1-|
E |----------------------------------------------|

Tablatured by SerIa|_KI||eR...
hey guys..this is my 1st tab here in the site ..i hope it's nice to play..so if there 
corrections please contact me H_mAn80@hotmail.com
Comments