Yiruma - River Flows In You Chords & Tabs

 

Yiruma Chords & Tabs

Version: 1 Type: Tab 2 ratings
1 star 2 stars 3 stars 4 stars 5 stars
comments

River Flows In You Tab

I simplify most of the song so it won't be that difficult
over all it should be pretty easy..took me about half an hour to play it
it's not exact but it should pretty much do the work lol
Thx ^-^







E||---5--4--5--4--5-----5-----|------------|---5--4--5--4--5-----5----|
B||------------------5-----3--|------------|------------------5-----3-|
G||---------------------------|--2---4-----|--------------------------|
D||---------------------------|------------|--------------------------|
A||---------------------------|------------|--------------------------|
e||---------------------------|------------|--------------------------|

E||-------------|--5--4--5--4--5-----5--------------------------------|
B||-------------|-----------------5------3----2--3--5-----2-----------|
G||--2---4------|--------------------------------------------4--------|
D||-------------|-----------------------------------------------------|
A||-------------|-----------------------------------------------------|
e||-------------|-----------------------------------------------------|

E||------------------------|------------------------------------------|
B||------------------------|--------5--------3---2---0----------------|
G||--2--1--2-----2--4--6---|-6--7-------------------------------------|
D||-----------2------------|------------------------------------------|
A||------------------------|------------------------------------------|
e||------------------------|------------------------------------------|

    (optional)
E||-------------|--5--4--5--4--5-----5--------------------9---7-------|
B||-------------|-----------------5-----3----2---3--5------------------|
G||--2---4------|-----------------------------------------------------|
D||-------------|-----------------------------------------------------|
A||-------------|-----------------------------------------------------|
e||-------------|-----------------------------------------------------|

E||---9--7--5--4-5--|------------------------------------|
B||------------------|--------------------5---------------|
G||------------------|--2--4--6----6--7--------7--6--4----|
D||------------------|------------------------------------|
A||------------------|------------------------------------|
e||------------------|------------------------------------|

E||--5--7--5--4-5-----|--5--7--5--4--5------5--7--9--10--12--9--7--5-4---|
B||-----------------5--|-----------------5---------------------------------|
G||--------------------|---------------------------------------------------|
D||--------------------|---------------------------------------------------|
A||--------------------|---------------------------------------------------|
e||--------------------|---------------------------------------------------|

E||--5--7--5--4-5-----|--5--7--5--4--5------5--7--9--10--12--9--7--5-4---|
B||-----------------5--|-----------------5--------------------------------|
G||--------------------|--------------------------------------------------|
D||--------------------|--------------------------------------------------|
A||--------------------|--------------------------------------------------|
e||--------------------|--------------------------------------------------|
[ Tab from: http://www.guitartabs.cc/tabs/y/yiruma/river_flows_in_you_tab.html ]
E||--55--7--5--4-5-----|-5--5--7--5--4--5------5--5--7--9--10--12--9--7-5-4--|
B||-------------------5--|-------------------5-----------------------------------|
G||----------------------|-------------------------------------------------------|
D||----------------------|-------------------------------------------------------|
A||----------------------|-------------------------------------------------------|
e||----------------------|-------------------------------------------------------|
E||--55--7--5--4-5-----|-5--5--7--5--4--5------5--5--7--9--10--12--9--7--5-4--|
B||-------------------5--|-------------------5-----------------------------------|
G||----------------------|-------------------------------------------------------|
D||----------------------|-------------------------------------------------------|
A||----------------------|-------------------------------------------------------|
e||----------------------|-------------------------------------------------------|


    (optional)
E||-------------|--5--4--5--4--5-----5--------------------------------|
B||-------------|-----------------5------3----2--3--5-----2-----------|
G||--2---4------|--------------------------------------------4--------|
D||-------------|-----------------------------------------------------|
A||-------------|-----------------------------------------------------|
e||-------------|-----------------------------------------------------|

E||------------------------|------------------------------------------|
B||------------------------|--------5--------3---2---0----------------|
G||--2--1--2-----2--4--6---|-6--7-------------------------------------|
D||-----------2------------|------------------------------------------|
A||------------------------|------------------------------------------|
e||------------------------|------------------------------------------|

E||-------------|--5--4--5--4--5-----5--------------------9---7-------|
B||-------------|-----------------5------3----2--3--5-----------------|
G||--2---4------|-----------------------------------------------------|
D||-------------|-----------------------------------------------------|
A||-------------|-----------------------------------------------------|
e||-------------|-----------------------------------------------------|

E||---9--7--5--4-5--|------------------------------------|
B||------------------|--------------------5---------------|
G||------------------|--2--4--6----6--7--------7--6--4----|
D||------------------|------------------------------------|
A||------------------|------------------------------------|
e||------------------|------------------------------------|


E||--55--7--5--4-5-----|-5--5--7--5--4--5------5--5--7--9--10--12--9--7--5-4--|
B||-------------------5--|-------------------5-----------------------------------|
G||----------------------|-------------------------------------------------------|
D||----------------------|-------------------------------------------------------|
A||----------------------|-------------------------------------------------------|
e||----------------------|-------------------------------------------------------|

E||--55--7--5--4-5-----|-5--5--7--5--4--5------5--5--7--9--10--12--9--7--5-4--|
B||-------------------5--|-------------------5-----------------------------------|
G||----------------------|-------------------------------------------------------|
D||----------------------|-------------------------------------------------------|
A||----------------------|-------------------------------------------------------|
e||----------------------|-------------------------------------------------------|

E||--55--7--5--4-5-----|-5--5--7--5--4--5------5--5--7--9--10--12--9--7--5-4--|
B||-------------------5--|-------------------5-----------------------------------|
G||----------------------|-------------------------------------------------------|
D||----------------------|-------------------------------------------------------|
A||----------------------|-------------------------------------------------------|
e||----------------------|-------------------------------------------------------|

Comments