Ying Yang Twins - By Myself Chords & Tabs

 

By Myself Chords & Tabs

Ying Yang Twins Chords & Tabs

Version: 1 Type: Bass Tab 0 ratings
1 star 2 stars 3 stars 4 stars 5 stars
comments

By Myself Bass Tab

Ying Yang Twins - By Myself
Tabbed By: kyn
EMail: kynphlee2002@yahoo.com


Intro/Chorus
[ Tab from: http://www.guitartabs.cc/tabs/y/ying_yang_twins/by_myself_btab.html ]
G-----------------------------------------|
D---7-777---5-555-------------------------|
A-------------------7-777-7---6-666-------|
E-----------------------------------------|

Verse

G------------------------------|-------3---------------|
D--------3---------------------|--5--------3---3h4-----|
A----5------3---3h4------------|-----------------------|
E------------------------------|-----------------------|
Comments