Yes - Starship Trooper Chords & Tabs

 

Starship Trooper Chords & Tabs

Yes Chords & Tabs

Version: 3 Type: Tab 0 ratings
1 star 2 stars 3 stars 4 stars 5 stars
comments

Starship Trooper Tab

   
=======================================================================
                 Starship Trooper - Yes
=======================================================================

Tabbed by: Thayer
[ Tab from: http://www.guitartabs.cc/tabs/y/yes/starship_trooper_tab_ver_3.html ]
e-mail: livewire2690@comcast.net
         
e|--0--||---0-----0----------0-----0--|----------------0--------------|
B|--0--||---0--9-----10---------------|--10-----10--9-----10------10--|
G|--1--||*--6------------11-----9-----|------8----------------11------|
D|--2--||*--7-------------------------|-------------------------------|
A|--2--||---7-------------------------|-------------------------------|
E|--0--||-----------------------------|-------------------------------|
                                                                     
                                8x                                       
e|-----|----------------------0---|
B|-----|--10-----10-----------0---|
G|--9--|------8---------------1---|
D|-----|-------------9h11--9\-2---|
A|-----|----------------------2---|
E|-----|----------------------0---|

| /  slide up
| \  slide down
| h  hammer-on
| p  pull-off
| ~  vibrato
| +  harmonic
| x  Mute note
======================================================================
Comments