Yes - Roundabout Chords & Tabs

 

Roundabout Chords & Tabs

Yes Chords & Tabs

Version: 6 Type: Tab 0 ratings
1 star 2 stars 3 stars 4 stars 5 stars
comments

Roundabout Tab

                       Roundabout intro 
                             Yes

                    submitted by: Eric Flament

e|--7-------------------------------------------------------
B|--8------12----10-12-10-------------10--------------------
G|--9---------------------12---11-12------------------------
D|--9-------------------------------------------------------
A|--7-------------------------------------------------------
E|--7-------------------------------------------------------
[ Tab from: http://www.guitartabs.cc/tabs/y/yes/roundabout_tab_ver_6.html ]
e|--7-------------------------------------------------------
B|--8------12----10-12-10-----------------------------------
G|--9---------------------12--------------------------------
D|--9---------------------------9-10-12---------------------
A|--7-----------------------------------9-10-12-------------
E|--7-------------------------------------------8-----------

e|----------------------------------------------------------
B|--12---10-12-10-------------------------------------------
G|----------------12-11---11--11-9-9-------9----------------
D|-----------------------------------12-12---12-10-9--------
A|---------------------------------------------------12-10-9
E|----------------------------------------------------------
Comments