Yes - Madrigal Chords & Tabs

 

Madrigal Chords & Tabs

Yes Chords & Tabs

Version: 1 Type: Tab 0 ratings
1 star 2 stars 3 stars 4 stars 5 stars
comments

Madrigal Tab

   
This waited tab is a guitar solo of YES by Steve Howe with a spanish guitar in Madrigal, from Tormato album.

It's a beautiful piece & I think this is the first made tab of that.

Enjoy it!!


-------------------------------------------------------------------------------
			     MADRIGAL - YES
-------------------------------------------------------------------------------
Tabbed by:Buby (Spain)
Email:vivamivio@hotmail.com

Tuning:I don't know ;P ( F# ?)

01:16

e|---------------9------12-9----10-12-14-12h14p12----10-7h9p7----------------|
B|-7-----10--------10--------10-------------------------------9--------------|
G|---6------9---------9------------------------------------------------------|
D|-----7------11-------------------------------------------------------------|
A|---------------------------------------------------------------------------|
E|---------------------------------------------------------------------------|
[ Tab from: http://www.guitartabs.cc/tabs/y/yes/madrigal_tab.html ]
e|-14-10----10-------------------------10/12----10-9-7-----------------------|
B|-------12----12----12--------------------------------10-8-7----------------|
G|----------------11----11----11----11------------------------9-7-6----------|
D|-------------------------12----12------------------------------------------|
A|---------------------------------------------------------------------------|
E|---------------------------------------------------------------------------|

e|--------------7-----12----14/16----14-12-11-12-11h12p11-9------------------|
B|--------9-------9----------------------------------------------------------|
G|-9--------9-------9--------------------------------------------------------|
D|---9--------9--------------------------------------------------------------|
A|-----11--------------------------------------------------------------------|
E|---------------------------------------------------------------------------|

e|-17-12----12-------9------5------------------------------------------------|
B|-------14----14-10---10-5---5----------------------------------------------|
G|------------------------------6--------------------------------------------|
D|--------------------------------7------------------------------------------|
A|---------------------------------------------------------------------------|
E|---------------------------------------------------------------------------|

| /  slide up
| \  slide down
| h  hammer-on
| p  pull-off
| ~  vibrato
| +  harmonic
| x  Mute note
===============================================================================
Comments