Yes - Heart Of The Sunrise Chords & Tabs

 

Heart Of The Sunrise Chords & Tabs

Yes Chords & Tabs

Version: 1 Type: Tab 1 rating
1 star 2 stars 3 stars 4 stars 5 stars
comments

Heart Of The Sunrise Tab

   
                            Heart of the Sunrise
                      by YES
from the album FRAGILE
                         transcribed by Ed Schaum
version 0.5
Dec 25 1999


THIS TRANSCRIPTION IS MEANT FOR PRIVATE STUDY ONLY! 
*********************************************************** 
Here is the first half (the easy half) of Heart of the Sunrise.  I'll 
finish tabbing it out soon. 
 
********************************************************** 
 
You can always find the latest version of this file on my site at: 
http://yesguitar.home.att.net 
All comments suggestions and corrections welcome: 
 
Ed Schaum 
yesguitar@att.net

                                                                           
E---||-------------------------------------------------------|-------------
B---||-------------------------------------------------------|-------------
G---||*------------------------------------------------------|-------------
D---||*---------------------------------------------------4--|-------------
A---||-------------------------------------2--3--4--5--6-----|-------------
E---||---2h4--4--4--4--4--2h4--4--4--4--4--------------------|-------------
                                                                           

                                                                           
E-------------------------||-----------------------------------------------
B-------------------------||--7h9--9--9--9--9--7h9--9--9--9--9-------------
G------------------------*||------------------------------------8--7--6----
D------------------------*||-----------------------------------------------
A-------------------------||-----------------------------------------------
E-------------------------||-----------------------------------------------
                                                                           

                                                                           
E------------|------------------------------------------------------|------
B------------|------------------------------------------------------|------
G---5--4-----|------------------------------------------------------|------
D---------6--|--4h6--6--6--6--6--4h6--6--6--6--6--------------------|------
A------------|------------------------------------6--5--4--3--2-----|------
E------------|---------------------------------------------------4--|------
                                                                           

                                                                           
E-------------------------------------------------------|------------------
B-------------------------------------------------------|------------------
G-------------------------------------------------------|------------------
D----------------------------------------------------4--|--4h6--6--6--6----
A-------------------------------------2--3--4--5--6-----|------------------
E---2h4--4--4--4--4--2h4--4--4--4--4--------------------|------------------
                                                                           

                                                                           
E-----------------------------------------|--------------------------------
B--------------------------------------7--|--------------------------------
G-----------------------4--5--6--7--8-----|--------------------------------
D---6--4h6--6--6--6--6--------------------|--4h6--6--6--6--6--4h6--6--6----
A-----------------------------------------|--------------------------------
E-----------------------------------------|--------------------------------
                                                                           

                                                                           
E---------------------------|----------------------------------------------
B------------------------7--|--7h9--9--9--9--9--7h9--9--9--9--9------------
G---------4--5--6--7--8-----|------------------------------------4--5------
D---6--6--------------------|----------------------------------------------
A---------------------------|----------------------------------------------
E---------------------------|----------------------------------------------
                                                                           

                                                         trill             
E---------------|------------------------------------------------|--11-----
B------------7--|--9---------------------------------------------|---------
G---6--7--8-----|--8--8-----------64-----86-----11--9h11p9--8--|---------
D---------------|--------9--8------------------------------------|---------
A---------------|------------------------------------------------|---------
E---------------|------------------------------------------------|---------
                                                                           

                                                                           
E---------9--------19--|--11h12p11p9h11--|--------------------|------------
B----------------------|-----------------|--------------------|------------
G----------------------|-----------------|--------------------|------------
D----------------------|-----------------|--------------------|------------
A----------------------|-----------------|--------------------|------------
E----------------------|-----------------|--------------------|------------
                                                                           

    count 10 beats when drum starts                                        
E------------------------------------------------------||------------------
B------------------------------------------------------||------------------
G------------------------------------------------------||*-----------------
D------------------------------------------------------||*-----------------
A------------------------------------------------------||------------------
E------------------------------------------------------||------------------
                                                                           

    organ progression 3x on Ab Eb Bb B C#                     3x           
E-------------------------------------------------------------||-----------
B-------------------------------------------------------------||-----------
G------------------------------------------------------------*||-----------
D------------------------------------------------------------*||-----------
A-------------------------------------------------------------||-----------
E-------------------------------------------------------------||-----------
                                                                           

    on last C#, count 4 eighth notes, then                                 
E---------------------------------------------------------||---------------
B---------------------------------------------------------||---------------
G---------------------------------------------------------||*--------------
D---------------------------------------------------------||*--------------
A---------------------------------------------------------||---------------

E---------------------------------------------------------||---------------
                                                                           

    this fades in slowly                                                   
E-------------------------------------------------------|------------------
B---7h9--9--9--9--9--7h9--9--9--9--9--------------------|------------------
G-------------------------------------8--7--6--5--4-----|------------------
D----------------------------------------------------6--|--4h6--6--6--6----
A-------------------------------------------------------|------------------
E-------------------------------------------------------|------------------
                                                                           

                                           7x                              
E------------------------------------------||--||--------------------------
B--------------------------------------7---||--||--------------------------
G-----------------------4--5--6--7--8-----*||--||*-------------------------
D---6--4h6--6--6--6--6--------------------*||--||*-------------------------
A------------------------------------------||--||--------------------------
E------------------------------------------||--||---2h4--4--4--4--4--2-----
                                                                           

                                                                           
E-------------------------------------|------------------------------------
B-------------------------------------|------------------------------------
G-------------------------------------|------------------------------------
D----------------------------------4--|--4h6--6--6--6--6--4h6--6--6--6-----
A-------------------2--3--4--5--6-----|------------------------------------
E---h4--4--4--4--4--------------------|------------------------------------
                                                                           

       1.------------------------2.---------------------------             
E----------------------------||-----------------------|--14h16--16--16-----
B----------------------------||-----------------7-----|--------------------
G---------------------------*||--4--5--6--7--8--------|--------------------
D---6-----------------------*||-----------------------|--------------------
A------6--5--4--3--2---------||-----------------------|--------------------
E---------------------4------||-----------------------|--------------------
                                                                           

                                                                           
E---16--16--14h16--16--16--16--16--------------------------|---------------
B----------------------------------16--15--14--13--12------|---------------
G------------------------------------------------------11--|--11h13--13----
D----------------------------------------------------------|---------------
A----------------------------------------------------------|---------------
E----------------------------------------------------------|---------------
                                                                           

                                                                           
E-------------------------------------------------------------|------------
B-------------------------------------------------------------|--9---------
G---13--13--13--11h13--13--13--13--13-------------------------|--8--8------
D--------------------------------------13--12--11--10--9------|------------
A---------------------------------------------------------11--|------------
E-------------------------------------------------------------|------------
                                                                           

                                    trill                                  
E-------------------------------------------|--11--------9--------19--|----
B-------------------------------------------|-------------------------|----
G------------64-----86-----11--9h11p9--8--|-------------------------|----
D---9--8------------------------------------|-------------------------|----
A-------------------------------------------|-------------------------|----
E-------------------------------------------|-------------------------|----
                                                                           

                                                                           
E---11h12p11p9h11--------------------||------------------------------------
B------------------------------------||------------------------------------
G------------------------------------||*-----------------------------------
D------------------------------------||*-----------------------------------
A------------------------------------||------------------------------------
E---------------------------------2--||---2h4--4--4--4--4--2h4--4--4--4----
                                                                           

                                                                           
E------------------------|-------------------------------------------------
B------------------------|-------------------------------------------------
G------------------------|-------------------------------------------------
D---------------------4--|--4h6--6--6--6--6--4h6--6--6--6--6---------------
A------2--3--4--5--6-----|-------------------------------------------------
E---4--------------------|-------------------------------------------------
                                                                           

    1.------------------------2.---------------------------                
E-------------------------||--------------------|--------------------------
B-------------------------||-----------------7--|--7h9--9--9--9--9--7------
G------------------------*||--4--5--6--7--8-----|--------------------------
D------------------------*||--------------------|--------------------------
A---6--5--4--3--2---------||--------------------|--------------------------
E------------------4------||--------------------|--------------------------
                                                                           

                                                                           
E-------------------------------------|------------------------------------
B---h9--9--9--9--9--------------------|--7h9--9--9--9--9--7h9--9--9--9-----
G-------------------8--7--6--5--4-----|------------------------------------
D----------------------------------6--|------------------------------------
A-------------------------------------|------------------------------------
E-------------------------------------|------------------------------------
                                                                           

                                                                  trill    
E------------------------|-------------------------------------------------
B---9--------------------|--9----------------------------------------------
G------8--7--6--5--4-----|--8--8-----------64-----86-----11--9h11p9------
D---------------------6--|--------9--8-------------------------------------
A------------------------|-------------------------------------------------
E------------------------|-------------------------------------------------
                                                                           

                                                                           
E------|--11--------9--------19--|--11h12p11p9h11--------------------------
B------|-------------------------|-----------------------------------------
G---8--|-------------------------|-----------------------------------------
D------|-------------------------|-----------------------------------------
A------|-------------------------|-----------------------------------------
E------|-------------------------|--------------------------------2--------
                                                                           

                                                                           
E---||-------------------------------------------------------|-------------
B---||-------------------------------------------------------|-------------
G---||*------------------------------------------------------|-------------
D---||*---------------------------------------------------4--|--4h6--6-----
A---||-------------------------------------2--3--4--5--6-----|-------------
E---||---2h4--4--4--4--4--2h4--4--4--4--4--------------------|-------------
                                                                           

                                                                           
E---------------------------------------------------||---------------------
B---------------------------------------------------||---------------------
G--------------------------------------------------*||---------------------
D---6--6--6--4h6--6--6--6--6-----------------------*||--4h6--6--6--6--6----
A-----------------------------6--5--4--3--2---------||---------------------
E--------------------------------------------4------||---------------------
                                                                           

                                                                           
E-----------------------------------|--------------------------------------
B--------------------------------7--|--7h9--9--9--9--9--7h9--9--9--9--9----
G-----------------4--5--6--7--8-----|--------------------------------------
D---4h6--6--6--6--------------------|--------------------------------------
A-----------------------------------|--------------------------------------
E-----------------------------------|--------------------------------------
                                                                           

                                                                           
E---------------------|--14h16--16--16--16--16--14h16--16--16--16--16------
B---------------------|----------------------------------------------------
G---8--7--6--5--4-----|----------------------------------------------------
D------------------6--|----------------------------------------------------
A---------------------|----------------------------------------------------
E---------------------|----------------------------------------------------
                                                                           

                                                                           
E---------------------------|----------------------------------------------
B---16--15--14--13--12------|----------------------------------------------
G-----------------------11--|--11h13--13--13--13--13--11h13--13--13--13----
D---------------------------|----------------------------------------------
A---------------------------|----------------------------------------------
E---------------------------|----------------------------------------------
                                                                           

                                                                           
E------------------------------|-------------------------------------------
B------------------------------|-------------------------------------------
G---13-------------------------|-------------------------------------------
D-------13--12--11--10--9------|-------------------------------------------
A--------------------------11--|--9h11--11--11--11--11--9h11--11--11-------
E------------------------------|-------------------------------------------
                                                                           

                                                                           
E--------------------------------|-----------------------------------------
B--------------------------------|-----------------------------------------
G--------------------------------|-----------------------------------------
D--------------------------------|-----------------------------------------
A---11--11-----6--5--4--3--2-----|------------------------------------2----
E-----------------------------4--|--2h4--4--4--4--4--2h4--4--4--4--4-------
                                                                           

                                                                           
E------------------|-------------------------------------------------------
B------------------|-------------------------------------------------------
G------------------|-------------------------------------------------------
D---------------4--|--4h6--6--6--6--6--4h6--6--6--6--6---------------------
A---3--4--5--6-----|------------------------------------6--5--4--3--2------
E------------------|-------------------------------------------------------
                                                                           

                                                trill                      
E------|------------------------------------------------|--11--------9-----
B------|--9---------------------------------------------|------------------
G------|--8--8-----------64-----86-----11--9h11p9--8--|------------------
D------|--------9--8------------------------------------|------------------
A------|------------------------------------------------|------------------
E---4--|------------------------------------------------|------------------
                                                                           
[ Tab from: http://www.guitartabs.cc/tabs/y/yes/heart_of_the_sunrise_tab.html ]
                                                                           
E---------19--|--11h12p11p9h11--|--94-------------------------------------
B-------------|-----------------|----------124----------------------------
G-------------|-----------------|------------------------------------------
D-------------|-----------------|------------------------------------------
A-------------|-----------------|------------------------------------------
E-------------|-----------------|------------------------------------------
                                                                           

         IV----------     6x  VI--------------                             
E---||--------------------||-------------------||--------------------------
B---||--------4-------4---||-------6-------6---||--------------------------
G---||*----------4h6-----*||----------6h8-----*||--------------------------
D---||*--4h6-------------*||--6h8-------------*||--------------------------
A---||--------------------||-------------------||--------------------------
E---||--------------------||-------------------||--------------------------
                                                                           

    VI------------------               VI--------------                    
E-----------------------------------|--------------------------------------
B--------6-------6-------6-------6--|-------7-------7----------------------
G-----------6h8-------------6h8-----|----------6h8-----------6--------6----
D---6h8-------------6h8-------------|--6h8----------------8--------8-------
A-----------------------------------|------------------9--------8----------
E-----------------------------------|--------------------------------------
    Love comes to you and you          follow                              

       VIII--------------                VI----------------                
E---|------------------11p10p8--------|-----------------9p8p6-------|------
B---|---------8-----------------11p8--|--------6---------------9p6--|------
G---|------------8--------------------|-----------6-----------------|------
D---|------8--------------------------|-----6-----------------------|------
A---|--10-----------------------------|--8--------------------------|------
E---|---------------------------------|-----------------------------|------
       Lose one                          on to the heart of the            

    IV---------------                                                      
E---------------------------------------------------------------|----------
B---------4-----4-------4-----4---------------------------------|----------
G------------5-----5h6-----6-----5h6p5-----5-----5--------------|----------
D------6--------------------------------6-----------------------|----------
A---6-----------------------------------------6-----------------|----------
E---------------------------------------------------------------|----------
    sunrise                                                                

                                                                           
E---------------------------|--------------------------|-------------------
B------6-----6-----6-----6--|-----7-----7-----7-----7--|------8------------
G---------6-----------6-----|--------6-----------6-----|---------8---------
D---8-----------8-----------|--8-----------8-----------|------------8------
A---------------------------|--------------------------|--10---------------
E---------------------------|--------------------------|-------------------
    Sharp                      Distance                   How can the      

                                    IV---------------                      
E-----------|--------------------|-----------------------------------------
B-------8---|-----6-----------6--|-----------4-----4-----------------------
G-------8---|--------6--------6--|--------5-----6-----6--5-----------------
D-------8---|-----------6-----6--|-----6--------------------6--------------
A---10--10--|--8-----------8--8--|--6--------------------------------------
E-----------|--------------------|-----------------------------------------
               wind with its arms alround me                   sunrise     

    IV---------------                                     fill in          
E--------------------------------------------------------------------------
B---------4-----4-------4-----4--------------------------------------------
G------------5-----5h6-----6-----5h6p5-----5-----5-------------------------
D------6--------------------------------6----------------------------------
A---6-----------------------------------------6-----6----------------------
E--------------------------------------------------------------------------
                                                                           

                                                                           
E------------------||-----------------------------------------|------------
B------------------||-----------4-----------------------------|------------
G------------------||-----------4-----------------------------|------------
D------------------||-----------4-----------------------------|------------
A------------------||-----------6-----------------------------|------------
E------------------||-----------------------------------------|------------
                       Lost on a wave and then                   after     

                                                                           
E---------------------------|--------3--------------------|----------------
B------5--------------------|--------4--------------------|----------------
G------4--------------------|--------3--------------------|----------------
D------6--------------------|--------5--------------------|----------------
A------4--------------------|--------3--------------------|----------------
E---------------------------|-----------------------------|----------------
                               dream on                                    

                                                                           
E---------------------------------|--------------------------11h13--11-----
B------6--------------------------|-----4----------------------------------
G------6--------------------------|-----5-----------6----------------------
D------6--------------------------|-----6-----------6----------------------
A------8--------------------------|-----6----------------------------------
E---------------------------------|----------------------------------------
    on to the heart of the           sunrise                               

                  Continue volume pedal                                    
E---------8p6--|-----------------------------------|-----------------|-----
B--------------|-----4-----------------116--------|-----5-----------|-----
G--------------|-----4-----------------------------|-----4-----------|-----
D--------------|-----4-----------------------------|-----6-----------|-----
A--------------|-----6-----------------------------|-----4-----------|-----
E--------------|-----------------------------------|-----------------|-----
                  Sharp                               distance             

    2nd guitar w/wah 1st continues chords        IV---------------         
E---------------------------------------------|----------------------------
B------8--------------------------6--4--2-----|--------4-----4-------4-----
G------10^---8--------------4/6-----------3--|-----------5-----5h6--------
D-------------------108----------------------|-----6----------------------
A---------------------------------------------|--6-------------------------
E---------------------------------------------|----------------------------
    how can the wind with so many                around me                 

                                                                           
E-------------------------------------|------------------------------------
B------4------------------------------|-----4------------------------------
G---6-----5h6p5-----5-----5-----------|-----4------------------------------
D----------------6--------------------|-----4------------------------------
A----------------------6-----6--------|-----2------------------------------
E-------------------------------------|------------------------------------
                 I feel lost in the      city                              

             count 1 2 3 1 2 3                                             
E---------|--------------------------------||---11-----/--12--11-----9-----
B---------|--------------------------------||------------------------------
G---------|--------------------------------||*--8------/--9---8------6-----
D---------|--------------------------------||*-----------------------------
A---------|--------------------------------||------------------------------
E---------|--------------------------------||------------------------------
                                                                           

                                                                           
E------/--11-----|--14-----/--16-----14-----12-----14-----11---||----------
B-------------9--|---------------------------------------------||----------
G------/--8------|--11-----/--13-----11-----9------11-----8---*||----------
D-------------6--|--------------------------------------------*||----------
A----------------|---------------------------------------------||----------
E----------------|---------------------------------------------||----------
                                                                           

    no guitar here              Volume pedal                               
E---------------------------||---------------------------------------|-----
B---------------------------||--10-----------------------------------|-----
G---------------------------||--9------------------------------------|-----
D---------------------------||--9------------------------------------|-----
A---------------------------||---------------------------------------|-----
E---------------------------||---------------------------------------|-----
                                Lost in their eyes as you                  

                                                  wah                      
E---5--------------------------|---------------------------------|---------
B---5--------------------------|-----10--------------------------|---------
G---6--------------------------|-----9---------------------------|---------
D---7--------------------------|-----9---------------------------|---------
A---7--------------------------|---------------------------------|---------
E---5--------------------------|---------------------------------|---------
    hurry by                      counting the broken ties                 

    no guitar                                                              
E---------------------------------------------|----------------------------
B---------------------------------------------|----------------------------
G---------------------------------------------|----------------------------
D---------------------------------------------|----------------------------
A---------------------------------------------|----------------------------
E---------------------------------------------|----------------------------
    they decided                                                           

    Volume Pedal this section                                              
E------------------------------------------|-------------------------------
B------------4-----------------------------|-----------5-------------------
G------------4-----------------------------|-----------4-------------------
D------------4-----------------------------|-----------6-------------------
A------------6-----------------------------|-----------4-------------------
E------------------------------------------|-------------------------------
    Love comes to you and then                after                        

                                                                           
E------|--------3--------------------|--------------------------------|----
B------|--------4--------------------|-----6--------------------------|----
G------|--------3--------------------|-----6--------------------------|----
D------|--------5--------------------|-----6--------------------------|----
A------|--------3--------------------|-----8--------------------------|----
E------|-----------------------------|--------------------------------|----
          dream on                      on to the heart of the             

                                                                           
E------------------------13--11--------|-----------------------------------
B------4-----14--13--------------------|-----4-----14--13--11--------------
G------5-------------13----------------|-----4-----------------------------
D------6-------------------------------|-----4-----------------------------
A------6-------------------------------|-----6-----------------------------
E--------------------------------------|-----------------------------------
    sunrise                               Lost on a wave that you're       

                                                                           
E------------------|-------------------------------|--------3--------------
B------------------|-----------5-------------------|--------4--------------
G------------------|-----------4--11--10--8--------|--------3--------------
D------------------|-----------6-------------------|--------5--------------
A------------------|-----------4-------------------|--------3--------------
E------------------|-------------------------------|-----------------------
                      dreaming                        dream on             

                                                                           
E------------|--------------------------------|--------------------|-------
B------------|-----6--------------------------|-----4--------------|-------
G------------|-----6--------------------------|-----5-----------6--|-------
D------------|-----6--------------------------|-----6-----------6--|-------
A------------|-----8--------------------------|-----6--------------|-------
E------------|--------------------------------|--------------------|-------
                on to the heart of the           sunrise                   

                                                                           
E--------------------|-----------------|-----------------||----------------
B--------------------|-----------------|-----------------||----------------
G---10--8------------|-----------------|-----------------||----------------
D----------10--8--6--|--11--10--8------|-----------------||----------------
A--------------------|-------------11--|--8--6-----------||----------------
E--------------------|-----------------|--------8--6--4--||----------------
                                                             SHARP!        


                                                                           
E------6-----|--------------------6--------|-----3-------------------------
B------6-----|--------------------7--------|-----4-------------------------
G------6-----|--------------------6--------|-----3-------------------------
D------6-----|--------------------8--------|-----5-------------------------
A------8-----|--------------------6--------|-----6-------------------------
E------6-----|--------------------6--------|-----3-------------------------
                DISTANCE!                     how can the                  

                                                                           
E---------|--1--------------------------------------------|-----------8----
B---------|--2--------------------------------------------|-----------9----
G---------|--1--------------------------------------------|----------------
D---------|--3--------------------------------------------|----------------
A---------|--4--------------------------------------------|----------------
E---------|--1--------------------------------------------|----------------
             the wind with it's arms all a-                  round me      

                                                                           
E-----6--4-----------11--13--11--------9------8----6--|------------------
B-----8--4-----------------------------10-----8----6--|------------------
G-------------------------------------------------------|------------------
D-------------------------------------------------------|------------------
A-------------------------------------------------------|------------------
E-------------------------------------------------------|------------------
                                                           SHARP!          

                                                                           
E------6-----|-----------------13--|-----3---------------------------------
B------6-----|-----------------11--|-----4---------------------------------
G------6-----|-----------------10--|-----3---------------------------------
D------6-----|-----------------13--|-----5---------------------------------
A------8-----|---------------------|-----6---------------------------------
E------6-----|---------------------|-----3---------------------------------
                DISTANCE!                                                  

                                                                           
E---|--1--------------------------------------------|-----4----------------
B---|--2--------------------------------------------|-----4----------------
G---|--1--------------------------------------------|-----5----------------
D---|--3--------------------------------------------|-----6----------------
A---|--4--------------------------------------------|-----6----------------
E---|--1--------------------------------------------|-----4----------------
       the wind with it's arms all a-                  round you           

                                                                           
E---20--18--16----------16------13--11--|----------------------------------
B---------------16--18------16--14--13--|----------------------------------
G-------------------------------13--13--|----------------------------------
D---------------------------------------|----------------------------------
A---------------------------------------|----------------------------------
E---------------------------------------|----------------------------------
                                           I feel lost in the city         

                                                                           
E------------||---11-----/--12--11-----9-----/--11-----|--14-----/--16-----
B------------||-------------------------------------9--|-------------------
G------------||*--8------/--9---8------6-----/--8------|--11-----/--13-----
D------------||*------------------------------------6--|-------------------
A------------||----------------------------------------|-------------------
E------------||----------------------------------------|-------------------
                                                                           

                                 3x                                        
E------14-----12-----14-----11---||-----------||---------------------------
B--------------------------------||-----------||---------------------------
G------11-----9------11-----8---*||-----------||---------------------------
D-------------------------------*||-----------||---------------------------
A--------------------------------||-----------||---------------------------
E--------------------------------||-----------||---------------------------
                                                                           



===========================================================================
==                         TABLATURE EXPLANATION                         ==
===========================================================================

----------                ----------                ----t---
----5h8--- Hammeron       ----(8)--- Ghost          ----6--- Tap
----------                ---------- Note           --------
----5p8--- Pulloff        ----------                --------

----------                ----------                -----p--
----5/8--- Slide Up       -----x---- Dead           -----7-- Pop
----------                ---------- Note           --s-----
----58--- Slide Down     ----------                --5----- Slap 

----------                ||------|| Repeat         --------
----5~~~-- Vibrato        ||*----*||                ---5^--- Bend
----------                ||*----*||                --------
----------                ||------||                --------

----------                ----------                --------
-4:------- Time           ----------                --------
-4:------- Signature      ----------                --------
----------                ----------                --------

===========================================================================
==             Created with a demo version of BUCKET O' TAB              ==
==                tablature creation software for Windows                ==
==                    For more info email gse@his.com                    ==
===========================================================================
Comments