Yellowcard - Words Hands Hearts Chords & Tabs

 

Words Hands Hearts Chords & Tabs

Yellowcard Chords & Tabs

Version: 1 Type: Tab

Words Hands Hearts Tab

THIS NEEDED TO BE FIXED!

[ Tab from: http://www.guitartabs.cc/tabs/y/yellowcard/words_hands_hearts_tab.html ]
-5-5-5-5-5-7-7-7-7-7----------------|
-3-3-3-3-3-5-5-5-5-5----------------|
-0-0-0-0-0-0-0-0-0-0-7-7-7-7-7-7-7-7|
---------------------7-7-7-7-7-7-7-7| 
---------------------5-5-5-5-5-5-5-5|
---------------------0-0-0-0-0-0-0-0|

-5-5-5-5-5-7-7-7-7-7----------------|
-3-3-3-3-3-5-5-5-5-5----------------|
-0-0-0-0-0-0-0-0-0-0-7-7-7-7-7-7-7-7|
---------------------7-7-7-7-7-7-7-7| 
---------------------5-5-5-5-5-5-5-5|
---------------------0-0-0-0-0-0-0-0|