Yellowcard - When Were Old Men Chords & Tabs

 

When Were Old Men Chords & Tabs

Yellowcard Chords & Tabs

Version: 1 Type: Tab

When Were Old Men Tab

Tabbed by: Ben Fanelli

I noticed there was not one tab for this song, so here it is.
This is my first tab and Im about 99% sure it's correct. Enjoi. 
Email me with any comments, earlynovember@gmail.com

|------------------------------------||
|------------------------------------||
|---9--9-----8--8-----4--4-----4--4--||intro  verse x 2
|------------------------------------||  2x     4x
|------------------------------------||
|-99-99-9--55-55-5--00-00-0--77-77-7-||


Solo
|-----------------------------------------------|
|-----------------------------------------------|
|---13----11-----8----9----13----11----8----9---|
|-----------------------------------------------|
|-00--0-00--0-00--0-00-0-00--0-00--0-00-0-00-0--|
|-----------------------------------------------|

[ Tab from: http://www.guitartabs.cc/tabs/y/yellowcard/when_were_old_men_tab.html ]
|-----------------------------------------------|
|-----------------------------------------------|
|---8----9----8----9----8----9----8----9--------|
|-----------------------------------------------|
|-00-0-00-0-00-0-00-0-00-0-00-0-00-0-00-0-------|
|-----------------------------------------------|


|-----------------------------------------------|
|-----------------------------------------------|
|---13----11-----8----9----13----11----8----9---|
|-----------------------------------------------|
|-00--0-00--0-00--0-00-0-00--0-00--0-00-0-00-0--|
|-----------------------------------------------|


|-----------------------------------------------|
|-----------------------------------------------|
|---8----9----8----9----8----9----8----9--------|
|-----------------------------------------------|
|-00-0-00-0-00-0-00-0-00-0-00-0-00-0-00-0-------|
|-----------------------------------------------|


|------------------------------------||
|------------------------------------||
|---9--9-----8--8-----4--4-----4--4--||verse 
|------------------------------------|| 6x
|------------------------------------||
|-99-99-9--55-55-5--00-00-0--77-77-7-||

End on:
|------|
|------|
|------|
|--13*-|
|------|
|------|