Yellowcard - Way Away Chords & Tabs

 

Way Away Chords & Tabs

Yellowcard Chords & Tabs

Version: 4 Type: Tab 0 ratings
1 star 2 stars 3 stars 4 stars 5 stars
comments

Way Away Tab

----------------------------------------------------------------------------
			     Way Away - Yellowcard
----------------------------------------------------------------------------
Tabbed by: Tootie8091
Email: Tootie8091@yahoo.com

Tuning: Dropped D

Intro x2

e|------------------------------------------------------------------------|
B|------8-------10-------8-------10-------8-------10-------8--------------|
G|-----10-----------------------------------------------------------------|
D|--0-------0--------0-------0--------0-------0--------0-------0----------| 
A|------------------------------------------------------------------------|
D|------------------------------------------------------------------------|
                                                                         
e|------------------------------------------------------------------------|
B|------8--------10-------8-------11-------10-------8---------------------|
G|----------------------------------------------------------10-------10---|
D|--8-------8---------8-------8--------8--------8-------8--------8--------|
A|------------------------------------------------------------------------|
D|------------------------------------------------------------------------|

e|------------------------------------------------------------------------|
B|------------------------------------------------------------------------|
G|------------------------------------------------------------------------|
D|--0-0-0-0-0-0-0-0-0-0-0-0-0-0-0-0-5-5-5-8-8-8-8-8-8-8-8-8-8-8-8-8-3-3-3-|
A|--0-0-0-0-0-0-0-0-0-0-0-0-0-0-0-0-5-5-5-8-8-8-8-8-8-8-8-8-8-8-8-8-3-3-3-|
D|--0-0-0-0-0-0-0-0-0-0-0-0-0-0-0-0-5-5-5-8-8-8-8-8-8-8-8-8-8-8-8-8-3-3-3-|

Verse x2

e|------------------------------------------------------------------------|
B|------------------------------------------------------------------------|
G|------------------------------------------------------------------------|
D|--7-7-7-7-7-7-7-7-7-7-7-7-7-7-7-7-5-5-5-5-5-5-5-5-5-5-5-5-5-5-5-5-------|
A|--5-5-5-5-5-5-5-5-5-5-5-5-5-5-5-5-3-3-3-3-3-3-3-3-3-3-3-3-3-3-3-3-------|
D|------------------------------------------------------------------------|
                                                                            
e|------------------------------------------------------------------------|
B|------------------------------------------------------------------------|
G|------------------------------------------------------------------------|
D|--3-3-3-3-3-3-3-3-3-3-3-3-3-3-3-3-3-3-2-2-2-2-2-------------------------|
A|--1-1-1-1-1-1-1-1-1-1-1-1-1-1-1-1-3-3-3-3-3-3-3-------------------------|
D|----------------------------------3-3-2-2-2-2-2-------------------------|

Chorus

e|------------------------------------------------------------------------|
B|------------------------------------------------------------------------|
G|------------------------------------------------------------------------|
D|-0-0-0-0-0-0-0-0-0-0-0-0-3-3-3-3-3-3-3-3-3-3-3-3------------------------|
A|-0-0-0-0-0-0-0-0-0-0-0-0-3-3-3-3-3-3-3-3-3-3-3-3------------------------|
D|-0-0-0-0-0-0-0-0-0-0-0-0-3-3-3-3-3-3-3-3-3-3-3-3------------------------|

e|------------------------------------------------------------------------|
B|------------------------------------------------------------------------|
G|------------------------------------------------------------------------|
D|-8-8-8-8-8-8-8-8-8-8-8-8-7-7-7-7-7-7-7-7-7-7-7-7------------------------|
A|-8-8-8-8-8-8-8-8-8-8-8-8-8-8-8-8-8-8-8-8-8-8-8-8------------------------|
D|-8-8-8-8-8-8-8-8-8-8-8-8-7-7-7-7-7-7-7-7-7-7-7-7------------------------|

e|------------------------------------------------------------------------|
B|------------------------------------------------------------------------|
G|------------------------------------------------------------------------|
D|-5-5-5-5-5-5-5-5-5-5-5-5-0-0-0-0-0-0-0-0-0-0-0-0------------------------|
A|-5-5-5-5-5-5-5-5-5-5-5-5-0-0-0-0-0-0-0-0-0-0-0-0------------------------|
D|-5-5-5-5-5-5-5-5-5-5-5-5-0-0-0-0-0-0-0-0-0-0-0-0------------------------|

e|------------------------------------------------------------------------|
B|------------------------------------------------------------------------|
G|------------------------------------------------------------------------|
D|-5-5-5-5-5-5-5-5-5-5-5-5-8-8-8-8-8-8-8-8-8------------------------------|
A|-5-5-5-5-5-5-5-5-5-5-5-5-8-8-8-8-8-8-8-8-8------------------------------|
D|-5-5-5-5-5-5-5-5-5-5-5-5-8-8-8-8-8-8-8-8-8------------------------------|

e|------------------------------------------------------------------------|
B|------------------------------------------------------------------------|
G|------------------------------------------------------------------------|
D|--0-0-0-0-0-0-0-0-0-0-0-0-0-0-0-0-5-5-5-8-8-8-8-8-8-8-8-8-8-8-8-8-3-3-3-|
A|--0-0-0-0-0-0-0-0-0-0-0-0-0-0-0-0-5-5-5-8-8-8-8-8-8-8-8-8-8-8-8-8-3-3-3-|
D|--0-0-0-0-0-0-0-0-0-0-0-0-0-0-0-0-5-5-5-8-8-8-8-8-8-8-8-8-8-8-8-8-3-3-3-|

Verse x2
[ Tab from: http://www.guitartabs.cc/tabs/y/yellowcard/way_away_tab_ver_4.html ]
e|------------------------------------------------------------------------|
B|------------------------------------------------------------------------|
G|------------------------------------------------------------------------|
D|--7-7--7-7-7--7-7-7--7-7-7--5-5--5-5-5--5-5-5--5-5-5--------------------|
A|--5-5--5-5-5--5-5-5--5-5-5--3-3--3-3-3--3-3-3--3-3-3--------------------|
D|------------------------------------------------------------------------|
                                                                            
e|------------------------------------------------------------------------|
B|------------------------------------------------------------------------|
G|------------------------------------------------------------------------|
D|--3-3--3-3-3--3-3-3--3-3-3--3-3-3-2-2-2-2-2-----------------------------|
A|--1-1--1-1-1--1-1-1--1-1-1--1-3-3-3-3-3-3-3-----------------------------|
D|------------------------------3-3-2-2-2-2-2-----------------------------|

e|------------------------------------------------------------------------|
B|------------------------------------------------------------------------|
G|------------------------------------------------------------------------|
D|-8-8-8-8-8-8-8-8-8-8-8-8-8-8-8-8-8-8-8-8-8-8-8--------------------------|
A|-8-8-8-8-8-8-8-8-8-8-8-8-8-8-8-8-8-8-8-8-8-8-8--------------------------|
D|-8-8-8-8-8-8-8-8-8-8-8-8-8-8-8-8-8-8-8-8-8-8-8--------------------------|

Chorus

e|------------------------------------------------------------------------|
B|------------------------------------------------------------------------|
G|------------------------------------------------------------------------|
D|-0-0-0-0-0-0-0-0-0-0-0-0-3-3-3-3-3-3-3-3-3-3-3-3------------------------|
A|-0-0-0-0-0-0-0-0-0-0-0-0-3-3-3-3-3-3-3-3-3-3-3-3------------------------|
D|-0-0-0-0-0-0-0-0-0-0-0-0-3-3-3-3-3-3-3-3-3-3-3-3------------------------|

e|------------------------------------------------------------------------|
B|------------------------------------------------------------------------|
G|------------------------------------------------------------------------|
D|-8-8-8-8-8-8-8-8-8-8-8-8-7-7-7-7-7-7-7-7-7-7-7-7------------------------|
A|-8-8-8-8-8-8-8-8-8-8-8-8-8-8-8-8-8-8-8-8-8-8-8-8------------------------|
D|-8-8-8-8-8-8-8-8-8-8-8-8-7-7-7-7-7-7-7-7-7-7-7-7------------------------|

e|------------------------------------------------------------------------|
B|------------------------------------------------------------------------|
G|------------------------------------------------------------------------|
D|-5-5-5-5-5-5-5-5-5-5-5-5-0-0-0-0-0-0-0-0-0-0-0-0------------------------|
A|-5-5-5-5-5-5-5-5-5-5-5-5-0-0-0-0-0-0-0-0-0-0-0-0------------------------|
D|-5-5-5-5-5-5-5-5-5-5-5-5-0-0-0-0-0-0-0-0-0-0-0-0------------------------|

e|------------------------------------------------------------------------|
B|------------------------------------------------------------------------|
G|------------------------------------------------------------------------|
D|-5-5-5-5-5-5-5-5-5-5-5-5-8-8-8-8-8-8-8-8-8------------------------------|
A|-5-5-5-5-5-5-5-5-5-5-5-5-8-8-8-8-8-8-8-8-8------------------------------|
D|-5-5-5-5-5-5-5-5-5-5-5-5-8-8-8-8-8-8-8-8-8------------------------------|

Bridge x5

e|-----5--------5-5-----------5--8-----5-5--8-----------------------------| 
B|-------5-6--------5-6-------------6---------6---------------------------|
G|--7----------------------7----------------------------------------------|
D|------------------------------------------------------------------------|  
A|------------------------------------------------------------------------|
D|------------------------------------------------------------------------|

e|-----5--------5-5-------------------------------------------------------| 
B|-------5-6--------5-6---------------------------------------------------|
G|--7---------------------------------------------------------------------|
D|------------------------------------------------------------------------| 
A|------------------------------------------------------------------------|
D|------------------------------------------------------------------------|

Bridge Con't x8

e|------------------------------------------------------------------------|
B|------------------------------------------------------------------------|
G|-7-7-7-7-9-9-9-9-10-10-10-10-12-12-12-12-12-----------------------------|
D|------------------------------------------------------------------------|  
A|-5-5-5-5-7-7-7-7-8--8--8--8--10-10-10-10-10-----------------------------|
D|------------------------------------------------------------------------|

e|------------------------------------------------------------------------|
B|------------------------------------------------------------------------|
G|------------------------------------------------------------------------|
D|-7-7-7-7-7-7-7-7-7-7-7-7-7-7-7-7----------------------------------------|
A|-7-7-7-7-7-7-7-7-7-7-7-7-7-7-7-7----------------------------------------|
D|-7-7-7-7-7-7-7-7-7-7-7-7-7-7-7-7----------------------------------------|

Chorus

e|------------------------------------------------------------------------|
B|------------------------------------------------------------------------|
G|------------------------------------------------------------------------|
D|--3-3-3-3-3-3-3-3-3-3-3-3-----------------------------------------------|
A|--3-3-3-3-3-3-3-3-3-3-3-3-----------------------------------------------|
D|--3-3-3-3-3-3-3-3-3-3-3-3-----------------------------------------------|

e|------------------------------------------------------------------------|
B|------------------------------------------------------------------------|
G|------------------------------------------------------------------------|
D|-8-8-8-8-8-8-8-8-8-8-8-8-7-7-7-7-7-7-7-7-7-7-7-7------------------------|
A|-8-8-8-8-8-8-8-8-8-8-8-8-8-8-8-8-8-8-8-8-8-8-8-8------------------------|
D|-8-8-8-8-8-8-8-8-8-8-8-8-7-7-7-7-7-7-7-7-7-7-7-7------------------------|

e|------------------------------------------------------------------------|
B|------------------------------------------------------------------------|
G|------------------------------------------------------------------------|
D|-5-5-5-5-5-5-5-5-5-5-5-5-0-0-0-0-0-0-0-0-0-0-0-0------------------------|
A|-5-5-5-5-5-5-5-5-5-5-5-5-0-0-0-0-0-0-0-0-0-0-0-0------------------------|
D|-5-5-5-5-5-5-5-5-5-5-5-5-0-0-0-0-0-0-0-0-0-0-0-0------------------------|

e|------------------------------------------------------------------------|
B|------------------------------------------------------------------------|
G|------------------------------------------------------------------------|
D|-5-5-5-5-5-5-5-5-5-5-5-5-8-8-8-8-8-8-8-8-8------------------------------|
A|-5-5-5-5-5-5-5-5-5-5-5-5-8-8-8-8-8-8-8-8-8------------------------------|
D|-5-5-5-5-5-5-5-5-5-5-5-5-8-8-8-8-8-8-8-8-8------------------------------|
Comments