Yellowcard - Way Away Chords & Tabs

 

Way Away Chords & Tabs

Yellowcard Chords & Tabs

Version: 2 Type: Bass Tab 0 ratings
1 star 2 stars 3 stars 4 stars 5 stars
comments

Way Away Bass Tab

I'v seen the other tab for this song and the E is tuned to a C, well
i think its a hell of alot easier like this without tuning to a C, Try this out.

Intro (Guitar)

Prelude

G--------------------------------------------------------------------------
D--------------------33-3-3-3-3-3-3-333------------------33-3-3-3-3-3-3-333
A-55-5-5-5-5-5-5-555-------------------55-5-5-5-5-5-5-555------------------
E--------------------------------------------------------------------------

Verse 1 x2

G-------------------------------------------------------
D---------------------------------------------------33-2
A-55555555555555555-333333333333333-111111111111111-----
E-------------------------------------------------------

Chorus

G--------------------------------------------------------
D------------------3333333333333-------------------------
A-5555555555555555---------------------------------------
E-------------------------------6666666666666-55555555555

G-------------------------------
D-555555555555555---------------
A----------------5555555-7777777
E-------------------------------

G-------------------------
D-555555555555555---------
A----------------555555555
E-------------------------

Prelude
[ Tab from: http://www.guitartabs.cc/tabs/y/yellowcard/way_away_btab_ver_2.html ]
G--------------------------------------------------------------------------
D--------------------33-3-3-3-3-3-3-333------------------33-3-3-3-3-3-3-333
A-55-5-5-5-5-5-5-555-------------------55-5-5-5-5-5-5-555------------------
E--------------------------------------------------------------------------

Verse 2 x2

G------------------------------------------------------------
D---------------------------------------------------33-2-(3>)
A-55555555555555555-333333333333333-111111111111111----------
E------------------------------------------------------------

Chorus

G--------------------------------------------------------
D------------------3333333333333-------------------------
A-5555555555555555---------------------------------------
E-------------------------------6666666666666-55555555555

G-------------------------------
D-555555555555555---------------
A----------------5555555-7777777
E-------------------------------

G-------------------------
D-555555555555555---------
A----------------555555555
E-------------------------

Bridge x6

G-------
D-------
A-5-----
E--5/8-6

Heavy Part of the Bridge x8

G-------------------
D---------------5555
A-5555-7777-8888----
E-------------------

Prelude

G----------------------
D-5555-----------------
A-----8888-7777-5555-55
E----------------------

Chorus

G---------------------------------------
D-3333333333333-------------------------
A---------------------------------------
E--------------6666666666666-55555555555

G-------------------------------
D-555555555555555---------------
A----------------5555555-7777777
E-------------------------------

G-------------------------
D-555555555555555---------
A----------------555555555
E-------------------------

I think thats all, plz rate this tab!
Comments