Yellowcard - Two Weeks From Twenty Chords & Tabs

 

Two Weeks From Twenty Chords & Tabs

Yellowcard Chords & Tabs

Version: 3 Type: Tab

Two Weeks From Twenty Tab

Hey guys...this song is really pretty, especially this intro, its also played throughout the chorus as well.
Have fun =) 

Splizzy 


e-----5---5-----3----3----------------5-----5--------|
b--------------------------3----3--------------------|
g----------------------------------------------------|
d-3-3--3-3---2-2--2-2--------------3-3---3-3---------|
a-----------------------3-3--3-3---------------------|
e----------------------------------------------------|
[ Tab from: http://www.guitartabs.cc/tabs/y/yellowcard/two_weeks_from_twenty_tab_ver_3.html ]
e----4----4-------------4----------------------------|
b----------------5-----------------------------------|
g----------------------------------------------------|
d------------------3/4-4-----------------------------|
a-2-2--2-2--3/4-4------------------------------------|
e----------------------------------------------------|

e----5----5----5----5----5----5----5----5------------|
b----------------------------------------------------|
g----------------------------------------------------|
d-3-3--3-3--3-3--3-3--5-5--5-5--5-5--5-5-------------|
a----------------------------------------------------|
e----------------------------------------------------|

^^Don't forget, play this at the chrous as well over the chords!
e-mail me if anything is wrong..im pretty sure its right
p_e_x_i@hotmail.com

<3 xoxo <3