Yellowcard - Twenty Three Chords & Tabs

 

Twenty Three Chords & Tabs

Yellowcard Chords & Tabs

Version: 1 Type: Bass Tab 0 ratings
1 star 2 stars 3 stars 4 stars 5 stars
comments

Twenty Three Bass Tab

   
Twenty Three
Tabbed by: allisterules
G D A E

INTRO
G--------------------------------------------|
D--------------------------------------------|
A-2222-0000-4444------0000-7777-9999-9999----|
E----------------4444------------------------|

VERSE
"for someone like you"
G------------|
D------------|
A------22----|
E-0000---22--|

"but u cant tell me"
G-----------|
D-----------|
A-----22----|
E-0000--22--|

BRIDGE
G-------------------------------------|
D-------------------------------------|
A-------------------------------------|
E-000000-22222222-00000000-2222222----|
[ Tab from: http://www.guitartabs.cc/tabs/y/yellowcard/twenty_three_btab.html ]
CHORUS
G----------------------------------------------|
D----------------------------------------------|
A-2222----2222---------------------7777-9999---|
E-----0000----2222-9999-11-11-11-11------------|

INTRO

2nd VERSE
G------------------------|
D------------------------|
A-----------2222---------|
E-000000000-----2222-----|

BRIDGE
CHORUS

INTERLUDE
G----------------------------------------------|
D----------------------------------------------|
A----------------------------------------------|
E-0000-2222-7777-6666-0000-2222-7777-6666------|

OUTTRO
G----------|
D----------|
A----------|
E-2222-1-0-|

there is a real quick part before the interlude that u should be
able to figure out
Comments