Yellowcard - Starstruck Chords & Tabs

 

Starstruck Chords & Tabs

Yellowcard Chords & Tabs

Version: 2 Type: Tab 0 ratings
1 star 2 stars 3 stars 4 stars 5 stars
comments

Starstruck Tab

   
Drop D Tuning

h - hammer on
p - pull off
* - harmonic

9x
9x - mute after strumming
7x

INTRO (listen to song for timings)
 Guitar 1 (x7)
e:------------------|--------------------------------------------
B:-3-------4-----3--|--4h6p4-3-4-3---3-----------3-------4-----3-
G:---3-5-3---3-5----|--------------5---------------3-5-3---3-5---
D:------------------|--------------------------------------------
A:------------------|--------------------------------------------
D:------------------|--------------------------------------------
pm   .   .   .

 Guitar 2 (come in on 6x)
e:---------------------------------------------------------------
B:---------1-----------1h3p1---1---------------------------------
G:-3-3-2-3---3-2-3-----------3---3-2-3---------------------------
D:---------------------------------------------------------------
A:---------------------------------------------------------------
D:---------------------------------------------------------------

 Guitar 3 (come in on 4x)
e:---------------------------------------------------------------
B:---------------------------------------------------------------
G:---------------------------------------------------------------
D:---------------------------------------------------------------
A:-1-1-1-1-1-1-1-1-5-5-5-5-5-5-5-5-1-1-1-1-1-1-1-1-5-5-----------
D:-1-1-1-1-1-1-1-1-5-5-5-5-5-5-5-5-1-1-1-1-1-1-1-1-5-5-----------

VERSE "Where is your inspiration..."
 Guitar 1 (x2)
e:---------------------------------------------------------------
B:---------------------------------------------------------------
G:3---3---5---3---2---2---3---3---3---3---3---3---0---0---2---2--
D:--5---5---5---5---4---4---5---5---5---5---3---3---1---1---3---3
A:---------------------------------------------------------------
D:---------------------------------------------------------------

 Guitar 1 (x2)
e:---------------------------------------------------------------
B:---------------------------------------------------------------
G:3---3---5---3---2---2---3---3---3---3---3---3---0---0---2---2--
D:--5---5---5---5---4---4---5---5---5---5---3---3---1---1---3---3
A:---------------------------------------------------------------
D:---------------------------------------------------------------

 Guitar 2 (x2)
e:---------------------------------------------------------------
B:---------------------------------------------------------------
G:---------------------------------------------------------------
D:---------------------------------------------------------------
A:5-5x------------5-5x----5-5x----1-1x------------1-1x----3-3x---
D:5-5x------------4-4x----5-5x----1-1x------------1-1x----3-3x---

CHORUS "But I grew up, wishing on a star..."
 Guitar 1
e:---------------------------------------------------------------
B:---------------------------------------------------------------
G:7-7-7-8-8-8-10-10-7-7-7-8-8-8-10-10----------------------------
D:---------------------------------------------------------------
A:5-5-5-6-6-6--8--8-5-5-5-6-6-6--8--8----------------------------
D:---------------------------------------------------------------

 Guitar 2
e:---------------------------------------------------------------
B:---------------------------------------------------------------
G:3-3-3-3-3-3-3-3-2-2-2-2-2-2-2-2--------------------------------
D:3-3-3-3-3-3-3-3-3-3-3-3-3-3-3-3--------------------------------
A:1-1-1-1-1-1-1-1-0-0-0-0-0-0-0-0-5-5-5-5-5-5-5-5-1-1-1-1-1-1-1-1
D:--------------------------------5-5-5-5-5-5-5-5-1-1-1-1-1-1-1-1

 Guitar 1
e:---------------------------------------------------------------
B:---------------------------------------------------------------
G:---------------------------------------------------------------
D:--------0---1--------------------------------------------------
A:1---3-----------3----------------------------------------------
D:---------------------------------------------------------------

 Guitar 2
e:---------------------------------------------------------------
B:---------------------------------------------------------------
G:3-3-3-3-3-3-3-3------------------------------------------------
D:3-3-3-3-3-3-3-3------------------------------------------------
A:1-1-1-1-1-1-1-1-3-3-3-3-3-3-3-3-5-5-5-5-5-5-5-5-1-1-1-1-1-1-1-1
D:----------------3-3-3-3-3-3-3-3-5-5-5-5-5-5-5-5-1-1-1-1-1-1-1-1

 POST-CHORUS
e:---------------------------------------------------------------
B:---------------------------------------------------------------
G:3-3-3-3-3-3-3-3------------------------------------------------
D:3-3-3-3-3-3-3-3------------------------------------------------
A:1-1-1-1-1-1-1-1-3-3-3-3-3-3-3-3--------------------------------
D:----------------3-3-3-3-3-3-3-3--------------------------------

 Guitar 1
e:---------------------------------------------------------------
B:---------------------------------------------------------------
G:-3--3--3-3-3--3--3--3-3-3--2--2--2-2-2--2--2--2-2-2------------
D:-3--3--3-3-3--3--3--3-3-3--3--3--3-3-3--3--3--3-3-3------------
A:-1--1--1-1-1--1--1--1-1-1--0--0--0-0-0--0--0--0-0-0------------
D:---------------------------------------------------------------
pm...    ...   ..     ...   ..     ...   ..     ...

e:---------------------------------------------------------------
B:-----------1-----3------4------------------1------3------------
G:----3-------------------------2------3-------------------------
D:---------------------------------------------------------------
A:---------------------------------------------------------------
D:---------------------------------------------------------------
[ Tab from: http://www.guitartabs.cc/tabs/y/yellowcard/starstruck_tab_ver_2.html ]
  VERSE again "So high on dedication..."
 Guitar 1
e:---------------------------------------------------------------
B:---------------------------------------------------------------
G:-------------2---2---3---3---3---3---3---3---0---0---2---2-----
D:------*--0-----4---4---5---5---5---5---3---3---1---1---3---3---
A:-5-5--5--------------------------------------------------------
D:-5-5-----------------------------------------------------------
             pm.................................................
 Guitar 2
e:---------------------------------------------------------------
B:---------------------------------------------------------------
G:---------------------------------------------------------------
D:---------------------------------------------------------------
A:-------------5-5-5-5-5-5-5-5-1-1-1-1-1-1-1-1-1-1-1-1-3-3-3-3---
D:-------------4-4-4-4-5-5-5-5-1-1-1-1-1-1-1-1-1-1-1-1-3-3-3-3---
             pm..................................................

 Guitar 1 (x3)
e:---------------------------------------------------------------
B:---------------------------------------------------------------
G:3---3---5---3---2---2---3---3---3---3---3---3---0---0---2---2--
D:--5---5---5---5---4---4---5---5---5---5---3---3---1---1---3---3
A:---------------------------------------------------------------
D:---------------------------------------------------------------
pm...............................................................

 Guitar 2 (x3)
e:---------------------------------------------------------------
B:---------------------------------------------------------------
G:---------------------------------------------------------------
D:---------------------------------------------------------------
A:5-5-5-5-5-5-5-5-5-5-5-5-5-5-5-5-1-1-1-1-1-1-1-1-1-1-1-1-3-3-3-3
D:5-5-5-5-5-5-5-5-4-4-4-4-5-5-5-5-1-1-1-1-1-1-1-1-1-1-1-1-3-3-3-3

  REPEAT CHORUS x1 "But I grew up, wishing on a star..."

2ND CHORUS CONTINUED
Guitar 1
e:---------------------------------------------------------------
B:---------------------------------------------------------------
G:---------------------------------------------------------------
D:--------0---1--------------------------------------------------
A:1---3-----------3----------------------------------------------
D:---------------------------------------------------------------

 Guitar 2
e:---------------------------------------------------------------
B:---------------------------------------------------------------
G:3-3-3-3-3-3-3-3-2-2-2-2-2x--2----------------------------------
D:3-3-3-3-3-3-3-3-3-3-3-3-3x--3----------------------------------
A:1-1-1-1-1-1-1-1-0-0-0-0-0x--0---5-5-5-5-5-5-5-5-1-1-1-1-1-1-1-1
D:--------------------------------5-5-5-5-5-5-5-5-1-1-1-1-1-1-1-1

 Guitar 1
e:---------------------------------------------------------------
B:---------------------------------------------------------------
G:---------------------------------------------------------------
D:--------0---1--------------------------------------------------
A:1---3-----------3----------------------------------------------
D:---------------------------------------------------------------

 Guitar 2
e:---------------------------------------------------------------
B:---------------------------------------------------------------
G:3-3-3-3-3-3-3-3------------------------------------------------
D:3-3-3-3-3-3-3-3------------------------------------------------
A:1-1-1-1-1-1-1-1-3-3-3-3-3-3-3-3-5-5-5-5-5-5-5-5-1-1-1-1-1-1-1-1
D:----------------3-3-3-3-3-3-3-3-5-5-5-5-5-5-5-5-1-1-1-1-1-1-1-1

 2ND POST-CHORUS
e:---------------------------------------------------------------
B:---------------------------------------------------------------
G:3-3-3-3-3-3-3-3-2-2-2-2-2-2-2-2--------------------------------
D:3-3-3-3-3-3-3-3-3-3-3-3-3-3-3-3--------------------------------
A:1-1-1-1-1-1-1-1-0-0-0-0-0-0-0-0-1-1---1-1-1---1-1-1---1-1-1----
D:--------------------------------1-1---1-1-1---1-1-1---1-1-1----
                               pm...    ...     ...     ...
e:---------------------------------------------------------------
B:---------------------------------------------------------------
G:---------------------------------------------------------------
D:---------------------------------------------------------------
A:-1-3-3---3-3-3---3-3-3---3-3-3---3-----------------------------
D:-1-3-3---3-3-3---3-3-3---3-3-3---3-----------------------------
pm....     ...     ...     ...    .. 

INTERLUDE
Guitar 1 (x5)
e:------------------|-------------------|------------------------
B:-3-------4-----3--|--4h6p4-3-4-3---3--|--3-------4-----3-------
G:---3-5-3---3-5----|--------------5----|----3-5-3---3-5---------
D:------------------|-------------------|------------------------
A:------------------|-------------------|------(x8)--------------
D:------------------|-------------------|------------------------
pm   .   .   .                               .   .   .

 Guitar 2 (come in on x5)
e:---------------------------------------------------------------
B:---------1-----------1h3p1---1---------------------------------
G:-3-3-2-3---3-2-3-----------3---3-2-3---------------------------
D:---------------------------------------------------------------
A:---------------------------------------------------------------
D:---------------------------------------------------------------

 Guitar 3 (come in on x3)
e:---------------------------------------------------------------
B:---------------------------------------------------------------
G:---------------------------------------------------------------
D:---------------------------------------------------------------
A:1-1-1-1-1-1-1-1-1-1-1-1-1-1-1-1-5-5-5-5-5-5-5-5-5-5-5-5-5-5-5-5
D:1-1-1-1-1-1-1-1-1-1-1-1-1-1-1-1-5-5-5-5-5-5-5-5-5-5-5-5-5-5-5-5

 Guitar 3
e:---------------------------------------------------------------
B:---------------------------------------------------------------
G:--------------------------------3-3-3-3-3-3-3-3-3-3-3-3-3-3-3-3
D:--------------------------------3-3-3-3-3-3-3-3-3-3-3-3-3-3-3-3
A:1-1-1-1-1-1-1-1-1-1-1-1-1-1-1-1-1-1-1-1-1-1-1-1-1-1-1-1-1-1-1-1
D:1-1-1-1-1-1-1-1-1-1-1-1-1-1-1-1--------------------------------

 Guitar 3
e:---------------------------------------------------------------
B:---------------------------------------------------------------
G:---------------------------------------------------------------
D:---------------------------------------------------------------
A:1-1-1-1-1-1-1-1-1-1-1-1-1-1-1-1-5-5-5-5-5-5-5-5-5-5-5-5-5-5-5-5
D:1-1-1-1-1-1-1-1-1-1-1-1-1-1-1-1-5-5-5-5-5-5-5-5-5-5-5-5-5-5-5-5

 repeat CHORUS
 repeat 2ND CHORUS
 repeat 1ST POST-CHORUS

 END "Where is you inspiration..."
e:---------------------------------------------------------------
B:---------------------------------------------------------------
G:---------------------------------------------------------------
D:---------------------------------------------------------------
A:5-5x------------5-5x----5-5x----1-1x------------1-1x----3-3x---
D:5-5x------------4-4x----5-5x----1-1x------------1-1x----3-3x---
Comments