Yellowcard - Space Travel Chords & Tabs

 

Space Travel Chords & Tabs

Yellowcard Chords & Tabs

Version: 1 Type: Bass Tab

Space Travel Bass Tab

Title: Space Travel
Artist: Yellowcard
Album: Lights and Sounds
Bassist: Pete Mowlsey
Tabbed by: Pete Boyle
Tuning: Drop D

Intro (0:00-0:11)
G| |---------------------------------|-----------------------------------|
D| |---------------------4-------4---|-------------4---------------------|
A| |-----5-------54-----------------|-----5---------------4--------------|
D| |-9-9---7-7-7-----5-5---5-5-5---5-|-9-9---7-7-7---5-5-5---5-5-5-76----|

Verse (0:11-0:31)
G| |---------------------------------|-----------------------------------|
D| |---------------------4-------4---|-------------4---------------------|
A| |-----5-------54-----------------|-----5---------------4--------------|
D| |-9-9---7-7-7-----5-5---5-5-5---5-|-9-9---7-7-7---5-5-5---5-5-5-76----|x2

Pre-Chorus (0:31-0:41)
G| |---------------------------------|---------------------------------|
D| |---------------------------------|---------------------------------|
A| |---------------------------------|---------------------------------|
D| |-9-9-9-9-x-x-7-7-7-5-5-5-x-0-0-0-|-9-9-9-9-x-x-7-7-7-5-5-5-x-0-0-0-|

Verse (0:41-1:01)
G| |---------------------------------|-----------------------------------|
D| |---------------------4-------4---|-------------4---------------------|
A| |-----5-------54-----------------|-----5---------------4--------------|
D| |-9-9---7-7-7-----5-5---5-5-5---5-|-9-9---7-7-7---5-5-5---5-5-5-76----|x2

Pre-Chorus (1:01-1:11)
G| |---------------------------------|---------------------------------|
D| |---------------------------------|---------------------------------|
A| |---------------------------------|---------------------------------|
D| |-9-9-9-9-x-x-7-7-7-5-5-5-x-0-0-0-|-9-9-9-9-x-x-7-7-7-5-5-5-x-0-0-0-|

Chorus (1:11-1:30)
G| |---------------------------------|---------------------------------|
D| |---------------------------------|---------------------------------|
A| |---------------------------------|---------------------------------|
D| |-0-0-0-0-0-0-0-0-8-8-8-8-8-8-8-8-|-9-9-9-9-9-9-9-9-9-9-9-9-7-7-7-7-|

G| |---------------------------------|---------------------------------|
D| |---------------------------------|---------------------------------|
A| |---------------------------------|---------------------------------|
D| |-0-0-0-0-0-0-0-0-8-8-8-8-8-8-8-8-|-9-9-9-9-9-9-9-9-9-9-9-9-7-7-7-7-|

Verse (1:31-1:51)
G| |---------------------------------|-----------------------------------|
D| |---------------------4-------4---|-------------4---------------------|
A| |-----5-------54-----------------|-----5---------------4--------------|
D| |-9-9---7-7-7-----5-5---5-5-5---5-|-9-9---7-7-7---5-5-5---5-5-5-76----|x3
[ Tab from: http://www.guitartabs.cc/tabs/y/yellowcard/space_travel_btab.html ]
Pre-Chorus (1:51-2:00)
G| |---------------------------------|---------------------------------|
D| |---------------------------------|---------------------------------|
A| |---------------------------------|---------------------------------|
D| |-9-9-9-9-x-x-7-7-7-5-5-5-x-0-0-0-|-9-9-9-9-x-x-7-7-7-5-5-5-x-0-0-0-|

Chorus (2:01-2:20)
G| |---------------------------------|---------------------------------|
D| |---------------------------------|---------------------------------|
A| |---------------------------------|---------------------------------|
D| |-0-0-0-0-0-0-0-0-8-8-8-8-8-8-8-8-|-9-9-9-9-9-9-9-9-9-9-9-9-7-7-7-7-|

G| |---------------------------------|---------------------------------|
D| |---------------------------------|---------------------------------|
A| |---------------------------------|---------------------------------|
D| |-0-0-0-0-0-0-0-0-8-8-8-8-8-8-8-8-|-9-9-9-9-9-9-9-9-9-9-9-9-7-7-7-7-|

Bridge (2:21-3:05)
G| |---------------------------------|---------------------------------|
D| |---------------------------------|---------------------------------|
A| |---------------------------------|---------------------------------|
D| |-5~------------------------------|-9~--------------7~--------------|
                                                                       |
G| |---------------------------------|---------------------------------|
D| |---------------------------------|---------------------------------|
A| |---------------------------------|-----------------9---5-5-5-5-5-5-|
D| |-9~--------------7~--------------|-5~------------------------------|

G| |---------------------------------|---------------------------------|
D| |---------------------------------|---------------------------------|
A| |-9---5-5-5-5-5-5-7---4-4-4-4-4-4-|-9---5-5-5-5-5-5-9---5-5-5-5-5-5-|
D| |---------------------------------|---------------------------------|

G| |---------------------------------|
D| |---------------------------------|
A| |-9---5-5-5-5-5-510------10-------|
D| |---------------------------------|

Chorus (3:06-3:26)
G| |---------------------------------|---------------------------------|
D| |---------------------------------|---------------------------------|
A| |---------------------------------|---------------------------------|
D| |-0-0-0-0-0-0-0-0-8-8-8-8-8-8-8-8-|-9-9-9-9-9-9-9-9-9-9-9-9-7-7-7-7-|

G| |---------------------------------|---------------------------------|
D| |---------------------------------|---------------------------------|
A| |---------------------------------|---------------------------------|
D| |-0-0-0-0-0-0-0-0-8-8-8-8-8-8-8-8-|-9-9-9-9-9-9-9-9-9-9-9-9-7-7-7-7-|

Outro (3:27-3:47)
G| |---------------------------------|---------------------------------|
D| |---------------------------------|---------------------------------|
A| |---------------------------------|---------------------------------|
D| |-0-0-0-0-0-0-0-0-8-8-8-8-8-8-8-8-|-9-9-9-9-9-9-9-9-0~--------------|