Yellowcard - Only One Chords & Tabs

 

Only One Chords & Tabs

Yellowcard Chords & Tabs

Version: 7 Type: Tab 0 ratings
1 star 2 stars 3 stars 4 stars 5 stars
comments

Only One Tab

Intro/Verse One:
Guitar 1
--0------0-----0-----0-----0----|----0-----0-----0-----0-----0--|
----0------0-----0-----0-----0--|--0-----0-----0-----0-----0---0|
1-----1------1-----1-----1-----1|2-----2-----2-----2-----2------|
--------------------------------|-------------------------------|
--------------------------------|-------------------------------|
--------------------------------|-------------------------------|

----0-----0----------0-----0----|----4-----4-----2-----0-----2--|
--0-----0------0---0-----0-----0|--0-----0-----0-----0-----0---0|
4-----4------4---6-----6-----6--|2-----2-----2-----2-----2------|
--------------------------------|-------------------------------|
--------------------------------|-------------------------------|
--------------------------------|-------------------------------|

Guitar 2
--------------------------------|----7-----7-----7-----7-----7---|
--9-----9-----9-----9-----9-----|--0-----0-----0-----0-----0-----|
----9-----9-----9-----9-----9---|--------------------------------|
9-----9-----9-----9-----9-----9-|7-----7-----7-----7-----7-----7-|
--------------------------------|--------------------------------|
--------------------------------|--------------------------------|

----0-----0---------0-----0-----|----7-----7-----5-----4-----5---|
--0-----0-----0---0-----0-----0-|--0-----0-----0-----0-----0-----|
8-----8-----8---9-----9-----9---|------------------------------7-|
--------------------------------|7-----7-----7-----7-----7-------|
--------------------------------|--------------------------------|
--------------------------------|--------------------------------|

Pre-Chorus One:
Guitar 1
---------------------------------------------------------|
---------------------------------------------------------|
-4-4--4-4-4--4-4-4--4-4-4--4-6-6--6-6-6--6-6-6--6-6-6--6-|
-4-4--4-4-4--4-4-4--4-4-4--4-6-6--6-6-6--6-6-6--6-6-6--6-|
-2-2--2-2-2--2-2-2--2-2-2--2-4-4--4-4-4--4-4-4--4-4-4--4-|
---------------------------------------------------------|
 * *  * * *  * * *  * * *  * * *  * * *  * * *  * * *  *
---------------------------------------------|
---------------------------------------------|
-----------------------------4-4--4-4-4--4-4-|
-2-2--2-2-2--2-2-2--2-2-2--2-4-4--4-4-4--4-4-|
-2-2--2-2-2--2-2-2--2-2-2--2-2-2--2-2-2--2-2-|
-0-0--0-0-0--0-0-0--0-0-0--0-----------------|
 * *  * * *  * * *  * * *  * * *  * * *  * *

Guitar 2
---------------------------------------------------------------------|
---------------------------------------------------------------------|
-----9-----9---9------9-----9---9-------9------9---9-------9-----9--9|
-9-9---9-9---9----9-9---9-9---9----11-11--11-11--11--11-11--11-11-11-|
---------------------------------------------------------------------|
---------------------------------------------------------------------|

---------------------------------------------------------------------|
---------------------------------------------------------------------|
-/9--9--9--9--9--9--9--9--9--9--9--9--9--9--8--8--8--8--8----9----11-|
----------------------------------------------------------11----11---|
---------------------------------------------------------------------|
---------------------------------------------------------------------|

Guitar 3
---------------------------------------------------------------------|
---------------------------------------------------------------------|
9-8---9-8---9-8--9-8---9-8---9-8--9-8----9-8----9-8--9-8----9-8---9-8|
-----9-----9----------9-----9----------11-----11----------11----11---|
---------------------------------------------------------------------|
---------------------------------------------------------------------|

---------------------------------------------------------------------|
---------------------------------------------------------------------|
/13-13-13-13-13-13-13-13-14-14-13-13-13-13-11-11-11-11-11----11----13|
----------------------------------------------------------13----13---|
---------------------------------------------------------------------|
---------------------------------------------------------------------|

Chorus One:
Guitar 1
---------------------------------|---------------------------------|
---------------------------------|---------------------------------|
-6-6-6-6-6-6-6-6-6-6-6-6-6-6-6-6-|---------------------------------|
-6-6-6-6-6-6-6-6-6-6-6-6-6-6-6-6-|-7-7-7-7-7-7-7-7-7-7-7-7-7-7-7-7-|
-4-4-4-4-4-4-4-4-4-4-4-4-4-4-4-4-|-7-7-7-7-7-7-7-7-7-7-7-7-7-7-7-7-|
---------------------------------|-5-5-5-5-5-5-5-5-5-5-5-5-5-5-5-5-|

---------------------------------|---------------------------------|
---------------------------------|---------------------------------|
---------------------------------|-4-4-4-4-4-4-4-4-5-5-5-5-5-5-5-5-|
-2-2-2-2-2-2-2-2-2-2-2-2-2-2-2-2-|-4-4-4-4-4-4-4-4-6-6-6-6-6-6-6-6-|
-2-2-2-2-2-2-2-2-2-2-2-2-2-2-2-2-|-2-2-2-2-2-2-2-2-3-3-3-3-3-3-3-3-|
-0-0-0-0-0-0-0-0-0-0-0-0-0-0-0-0-|---------------------------------|

Guitar 2
---------------------------------|---------------------------------|
---------------------------------|---------------------------------|
-6-6-6-6-6-6-6-6-6-6-6-6-6-6-6-6-|-9-9-9-9-9-9-9-9-9-9-9-9-9-9-9-9-|
-X-x-x-x-x-x-x-x-x-x-x-x-x-x-x-x-|-x-x-x-x-x-x-x-x-x-x-x-x-x-x-x-x-|
-4-4-4-4-4-4-4-4-4-4-4-4-4-4-4-4-|-7-7-7-7-7-7-7-7-7-7-7-7-7-7-7-7-|
---------------------------------|---------------------------------|

---------------------------------|---------------------------------|
---------------------------------|---------------------------------|
-9-9-9-9-9-9-9-9-9-9-9-9-9-9-9-9-|-4-4-4-4-4-4-4-4-5-5-5-5-5-5-5-5-|
-x-x-x-x-x-x-x-x-x-x-x-x-x-x-x-x-|-x-x-x-x-x-x-x-x-x-x-x-x-x-x-x-x-|
-7-7-7-7-7-7-7-7-7-7-7-7-7-7-7-7-|-2-2-2-2-2-2-2-2-3-3-3-3-3-3-3-3-|
---------------------------------|---------------------------------|

Post-Chorus One:
Guitar 1
--------------------------------------------|
--------------------------------------------|
--------------------------------------------|
-6~-------7~------9~-----6~--------------2~-|
-x--------x-------x------x---------------x--|
-4~-------5~------7~-----4~--------------0~-|

Guitar 2
--------------------------------|----7-----7-----7-----7-----7---|
--9-----9-----9-----9-----9-----|--0-----0-----0-----0-----0-----|
----9-----9-----9-----9-----9---|--------------------------------|
9-----9-----9-----9-----9-----9-|7-----7-----7-----7-----7-----7-|
--------------------------------|--------------------------------|
--------------------------------|--------------------------------|

----0-----0---------0-----0-----|----7-----7-----5-----4-----5---|
--0-----0-----0---0-----0-----0-|--0-----0-----0-----0-----0-----|
8-----8-----8---9-----9-----9---|------------------------------7-|
--------------------------------|7-----7-----7-----7-----7-------|
--------------------------------|--------------------------------|
--------------------------------|--------------------------------|
[ Tab from: http://www.guitartabs.cc/tabs/y/yellowcard/only_one_tab_ver_7.html ]
Guitar 3
--------------------------------------------|
---------14~----12~-------------------------|
-13~------x------x-------13~----------------|
--x------11~-----9~-------x---------11-\-9~-|
-11~---------------------11~---------x---x--|
-------------------------------------9-\-7~-|

Verse Two:
Guitar 2 repeats 1st Verse

Guitar 1 plays
e|-0-|-0-|-0-|-0-|-0-|
B|-0-|-0-|-0-|-0-|-0-|
G|-1-|-2-|-4-|-6-|-2-|
D|-2-|-2-|-4-|-6-|-2-|
A|-2-|-0-|-2-|-4-|-0-|
E|-0-|---|---|---|---|

Pre-Chorus Two:
Guitar 1 and Guitar 2 repeat 1st Pre-Chorus

Guitar 3 plays
-----------------------------|-------------------------------------|--hit-|
-----------------------------|-------------------------------------|---a--|
--9------9------9---11---9---|---9--------9--------9----11----9----|-bunch|
9---9--9---9--9---9----9---9-|11---11--11---11--11---11----11---11-|14-|13|
-----------------------------|-------------------------------------|---|--|
-----------------------------|-------------------------------------|---|--|

Chorus Two:                                               -6-
Guitar 1 and Guitar 2 repeat 1st Chorus   Guitar 1 ends on-6-
                                                          -4-
Guitar 3 plays
16~|--------------16~--------14-17-16~|--------------16~------------|---|
---|17-17~---17--------17-12----------|17-17~---17--------17--12-13-|14~|
---|----------------------------------|-----------------------------|---|
---|----------------------------------|-----------------------------|---|
---|----------------------------------|-----------------------------|---|
---|----------------------------------|-----------------------------|---|

Solo:
Guitar 1
---------------------------------|---------------------------------|
---------------------------------|---------------------------------|
-6-6-6-6-6-6-6-6-6-6-6-6-6-6-1111|---------------------------------|
-6-6-6-6-6-6-6-6-6-6-6-6-6-6-1111|-7-7-7-7-7-7-7-7-7-7-7-7-7-7-7-7-|
-4-4-4-4-4-4-4-4-4-4-4-4-4-4-9-9-|-7-7-7-7-7-7-7-7-7-7-7-7-7-7-7-7-|
---------------------------------|-5-5-5-5-5-5-5-5-5-5-5-5-5-5-5-5-|

---------------------------------|---------------------------------|
---------------------------------|---------------------------------|
---------------------------------|---------------------------------|
-9-9-9-9-9-9-9-9-9-9-9-9-9-9-9-9-|-7-7-7-7-7-7-7-7-7-7-7-7-7-7-7-7-|
-9-9-9-9-9-9-9-9-9-9-9-9-9-9-9-9-|-7-7-7-7-7-7-7-7-7-7-7-7-7-7-7-7-|
-7-7-7-7-7-7-7-7-7-7-7-7-7-7-7-7-|-5-5-5-5-5-5-5-5-5-5-5-5-5-5-5-5-|

Guitar 2
----------|--------------------------------------|---------------------|
----------|-------\9--9--7-----------------------|---------------------|
--6--8--9~|-6-6-6------------6--6-------6--8--9~-|--6--6--9--9--8--8-9-|
----------|--------------------------6-----------|---------------------|
----------|--------------------------------------|---------------------|
----------|--------------------------------------|---------------------|

----------------------|-------------|-----------------------------|
----------------------|-------------|----/12-12-10----------------|
---9----11----(11)/13~|--ringing----|9-9-----------9-9----9-11-13~|
----------------------|-------------|------------------11---------|
----------------------|-------------|-----------------------------|
----------------------|-------------|-----------------------------|

----------------|----------------|----------------------------------|
----------------|----------------|----------------------------------|
----ringing-----|-13-14-13-------|-13-14-13-------------------------|
----------------|----------14-11~|----------14-11--14-(14)/16-14-13-|
----------------|----------------|----------------------------------|
----------------|----------------|----------------------------------|

Guitar 3
------16~|------19-19-17--------------------16~|-------16-16-------|------|
17-19----|17-17------------17-17--14-17-19-----|-17-17-------19-19~|17-14~|
---------|-------------------------------------|-------------------|------|
---------|-------------------------------------|-------------------|------|
---------|-------------------------------------|-------------------|------|
---------|-------------------------------------|-------------------|------|

----------------------|----14-15/16~|----------------19-19--17~-|
-------12-14-16-17-14~|-17----------|-17-14~--17-17-------------|
-13-14----------------|-------------|---------------------------|
----------------------|-------------|---------------------------|
----------------------|-------------|---------------------------|
----------------------|-------------|---------------------------|

-16-17-16-------|----------------|----------------------------------|
----------17----|----------------|----------------------------------|
-------------16~|-----ringing----|-16-18-16-------------------------|
----------------|----------------|----------18-14--18-(18)/19-18-16-|
----------------|----------------|----------------------------------|
----------------|----------------|----------------------------------|

Verse Three: (Quiet Singing)
Guitar 1
e|-0-|-0-|-0-|-0-|-x-|
B|-0-|-0-|-0-|-0-|-x-|
G|-6-|-2-|-1-|-4-|-5-|
D|-6-|-2-|-2-|-4-|-6-|
A|-4-|-0-|-2-|-2-|-3-|
E|---|---|-0-|---|---|

Guitar 2
--0------0-----0-----0-----0----|----0-----0-----0-----0-----0--|
----0------0-----0-----0-----0--|--0-----0-----0-----0-----0---0|
6-----6------6-----6-----6-----6|2-----2-----2-----2-----2------|
--------------------------------|-------------------------------|
--------------------------------|-------------------------------|
--------------------------------|-------------------------------|

----0-----0-----0-----0-----0---|----0-----0---------0-----0----|
--0-----0-----0-----0-----0---0-|--0-----0-----0---0-----0-----0|
1-----1-----1-----1-----1-------|4-----4-----4---5-----5-----5--|
--------------------------------|-------------------------------|
--------------------------------|-------------------------------|
--------------------------------|-------------------------------|

Chorus Three:
Guitar 1, Guitar 2, and Guitar 3 repeat 2nd Chorus

Outro:
Guitar 1
-------------------------------------------------------------|
-------------------------------------------------------------|
-------------------------------------------------------------|
-------------------------------------------------------------|
---------------------12--14~---11--14--------------11~-------|
-9~--11-12-9~----9---------------------------11~---------12~-|

Guitar 2
-16~-----------------17--16~---------------------------------|
-----17~--14~---14-------------17~-----------12~---13~---14~-|
-------------------------------------------------------------|
-------------------------------------------------------------|
-------------------------------------------------------------|
-------------------------------------------------------------|

Credit for this tab goes to John Valte (J.V),blueyedbrownie, Josh, and of course, me :)
If you don't want to or can't use 3 guitars, it still sounds good with just the first 2.
If you see any mistakes, let me know.

zman919191@yahoo.com
Nick Z.
Comments